Oops, an error
Loading. Please wait.

Dímelo Tab

77 views 1 this week
no commentswrite comment
1 2 3 4 5
3 more votes to show rating
add to favorites
launch autoscroll
font size
0
reset
how to read this tab
guitar tuner
Autoscroll
slow
fast
+/-
esc
set tempo
stop
Help us to improve Ultimate-Guitar.com Take our survey!
×
Armoniza en Re mayor

Este arpeggio se repite tres veces
e--2------2------3-----2-----
B----3------3------3-----3---
G-------2-----2------2-----2-
D------------------------------
A------------------------------

Requinto del intermedio
e-----------------------------0-0---------0-2-2-3-5-
B-3-3-3--------------2--2-2-3-----3-3-3-3-----3-5-7-
G-------4-4--2-2-2/4--------------------------------
D---------------------------------------------------
A---------------------------------------------------
E---------------------------------------------------

e-5-5-5--------------------5-7-7-5-5-5-5-7-9--9-10-12-
B-------7-7-5-5-5/7-8--8-8-------------------10-12-14-
G-----------------------------------------------------
D-----------------------------------------------------
A-----------------------------------------------------
E-----------------------------------------------------

Este es el final del requinto y tambien se
Usa como introducion para los versos que
Empiezan?..Lloras y no sabes que decir.

e--2-3-5-
B-3-5-7-
G--------
D--------
A--------
E--------


El final? el arpeggio se repite tres veces
e----------------------------2----2----3----2-----
B-3-3-3------------------2-3---3----3----3----3---
G-------4-4-2-2-2/4--2-4---------2----2----2----2-
D-------------------------------------------------
A-------------------------------------------------
E-------------------------------------------------
Suggest correction
Give kudos to tab author, rate the tab!
1 2 3 4 5
comments
print report bad tab
guest
You may want to rate the tab now too:
select rating
Wanna post a correction for this tab? Suggest correction