Oops, an error
Loading. Please wait.

El Colibrí Tab

10 views 1 this week
no commentswrite comment
1 2 3 4 5
3 more votes to show rating
add to favorites
launch autoscroll
font size
0
reset
how to read this tab
guitar tuner
Autoscroll
slow
fast
+/-
esc
set tempo
stop
Help us to improve Ultimate-Guitar.com Take our survey!
×
Armoniza en SI menor

  Bm                F#                  Bm                   F#                  Bm
e-------2-2-2-0-0------0-0-0-3-3-3-2-2-------------2-2-2-0-0------2-2-0-0-----------
B-3-3-3-----------2-2------------------3-3---3-3-3-----------2-2----------3-3-2-2-0-
G-----------------------------------------------------------------------------------
D-----------------------------------------------------------------------------------
A-----------------------------------------------------------------------------------
E-----------------------------------------------------------------------------------
  Bm                    F#                         Bm                         F#                   Bm
e-2-3-2-3-2-3-2-3-2-0-0------2-3-2-3-2-3-2-3-2----------2-3-2-3-2-3-2-3-2-0-0------2-2-0-0-----------
B-----------------------2-2--------------------3-3----------------------------2-2----------3-3-2-2-0-
G--------------------------------------------------4-4-----------------------------------------------
D----------------------------------------------------------------------------------------------------
A----------------------------------------------------------------------------------------------------
E----------------------------------------------------------------------------------------------------
Aqui cambia a Si mayor
   B               F#                   B                    F#                   B
e------------7-7-6----------------6-6------------------7-7-6----------------6-6-----
B--------7-7-------9----------9-9-----9-7----------7-7-------9----------9-9-----9-7-
G---8-8-8---------------6-6-6----------------8-8-8----------------6-6-6-------------
D-9-------------------8--------------------9--------------------8-------------------
A-----------------------------------------------------------------------------------
E-----------------------------------------------------------------------------------
  B             F#                   B                  F#                        B 
e--------------------6-6-6-7-9-9-7-6-7-----------------------6-6-6-7-9-9-7-6-7---6/7-
B---9-7------------7-------------------9----9-7------------7-------------------9-----
G-------9-9-8-8-6-------------------------------9-9-8-8-6----------------------------
D-9---------------------------------------9------------------------------------------
A------------------------------------------------------------------------------------
E------------------------------------------------------------------------------------
Cambia a Si menor
 Bm                                F#                                   Bm
e-14-15-14-15-14-15-14-15-14-12-12-------14-15-14-15-14-15-14-15-14--------------
B----------------------------------14-14----------------------------15-15--------
G--------------------------------------------------------------------------16-16-
D--------------------------------------------------------------------------------
A--------------------------------------------------------------------------------
E--------------------------------------------------------------------------------
   Bm                              F#                            Bm
e-14-15-14-15-14-15-14-15-14-12-12-------14-14-12-12----------------
B----------------------------------14-14-------------15-15-14-14-12-
G-------------------------------------------------------------------
D-------------------------------------------------------------------
A-------------------------------------------------------------------
E-------------------------------------------------------------------
Suggest correction
Give kudos to tab author, rate the tab!
1 2 3 4 5
comments
print report bad tab
guest
You may want to rate the tab now too:
select rating
Wanna post a correction for this tab? Suggest correction