Oops, an error
Loading. Please wait.

Extrañándote Tab

53 views 1 this week
no commentswrite comment
1 2 3 4 5
2 more votes to show rating
add to favorites
launch autoscroll
font size
0
reset
how to read this tab
guitar tuner
Autoscroll
slow
fast
+/-
esc
set tempo
stop
Este requinto armoniza en Re mayor, 
entonces corresponde con los acordes de
extrañandote que colaboro Chris Gomez.

E-----------------------------------------------------------
A---------------2--2---------------------0--0--0--0--2--2---
D---4--2--0-----------5--5--5--5--4--4----------------------
G------------0--------4--4--4--4--2--2----------------------
B-----------------------------------------------------------
e-----------------------------------------------------------

E-----------------------------------------------------------
A---4--5--7--7--5--5----------------------------------------
D---2--4--5--5--4--4----------------------------------------
G---------------------------7------7------------------------
B------------------------7-------7--------------------------
e----------------------5-------7----------------------------
Suggest correction
Give kudos to tab author, rate the tab!
1 2 3 4 5
comments
print report bad tab
guest
You may want to rate the tab now too:
select rating
Wanna post a correction for this tab? Suggest correction