Oops, an error
Loading. Please wait.

Mi Vida Eres Tú Tab

version 1
version 1

Whole song

154 views 1 this week
no commentswrite comment
1 2 3 4 5
3 more votes to show rating
add to favorites
launch autoscroll
font size
0
reset
how to read this tab
guitar tuner
Autoscroll
slow
fast
+/-
esc
set tempo
stop
Help us to improve Ultimate-Guitar.com Take our survey!
×
Este es le requinto de Mi vida eres tu


E--------------------------------------------
A--------------------------------------------
D--------------------------------------------
G------------3-------------------------------
B---6--5--3--3--5--6--8--6--5-10-------------
e---5--3--1-----3--5--6--5--3--8-------------

E-------------------------------------------
A-------------------------------------------
D-------------------------------------------
G-------------------------------------------
B--3--5--6--5--3--8---11--10--11--10--------
e--1--3--5--3--1--6---10---9--10---9--------

E-------------------------------------------
A-------------------------------------------
D-------------------------------------------
G-------------------------------2-----------
B--8--6--5--6--5--3--3---3---3--3-----------
e--6--5--3--5--3--1----1---1----1-----------
Suggest correction
Give kudos to tab author, rate the tab!
1 2 3 4 5
comments
print report bad tab
guest
You may want to rate the tab now too:
select rating
Wanna post a correction for this tab? Suggest correction