Oops, an error
Loading. Please wait.

Perdóname Tab

34 views 1 this week
no commentswrite comment
1 2 3 4 5
3 more votes to show rating
add to favorites
launch autoscroll
font size
0
reset
how to read this tab
guitar tuner
Autoscroll
slow
fast
+/-
esc
set tempo
stop
Help us to improve Ultimate-Guitar.com Take our survey!
×
Armoniza en Mi mayor

Introducsion
e--9-11-12--11--9-7--11--9-7---9-7-5--7-5-4-
B-10-12-14--12-10-9--12-10-9--10-9-7--9-7-5-
G-------------------------------------------
D-------------------------------------------
A-------------------------------------------
E-------------------------------------------

Requinto de intermedio
e--9-11-12--11--9-7--11--9-7---9-7-5--11--9-
B-10-12-14--12-10-9--12-10-9--10-9-7--12-10-
G-------------------------------------------
D-------------------------------------------
A-------------------------------------------
E-------------------------------------------

e-5-7-9--7-5-4--7-5-4--5-4-2--4-2-0-
B-----------------------------------
G-6-8-9--8-6-4--8-6-4--6-4-2--4-2-1-
D-----------------------------------
A-----------------------------------
E-----------------------------------
Suggest correction
Give kudos to tab author, rate the tab!
1 2 3 4 5
comments
print report bad tab
guest
You may want to rate the tab now too:
select rating
Wanna post a correction for this tab? Suggest correction