Oops, an error
Loading. Please wait.

Perdóname Bass Tab

37 views 1 this week
no commentswrite comment
1 2 3 4 5
3 more votes to show rating
add to favorites
launch autoscroll
font size
0
reset
guitar tuner
×
Best way to learn
"Perdóname"
Autoscroll
slow
fast
+/-
esc
set tempo
stop
Intro
E|----|-----|-----|------|
A|----|---7-|-7---|---5--|
D|--5-|-5---|---7-|-7----|
G|----|-----|-----|------|

E|----|-----|-----|----|
A|----|---7-|-7---|-5--|
D|--5-|-5---|---7-|----|
G|----|-----|-----|----|

He venido
E|--3-33-|-0-00-|------|-------5--|
A|-------|------|-3-33-|-5-5532---|
D|-------|------|------|----------|
G|-------|------|------|----------|

y a buscar
E|--3-30-|-0------|------|-3-|-----|-----|----|
A|-------|---3-33-|-5-55-|---|-5-7-|-5-3-|-5--|
D|-------|--------|------|---|-----|-----|----|
G|-------|--------|------|---|-----|-----|----|

se que fui yo
E|--3-33-|-0-00-|------|-------5--|
A|-------|------|-3-33-|-5-5532---|
D|-------|------|------|----------|
G|-------|------|------|----------|

y tu dolor
E|--3-30-|-0------|------|--------|
A|-------|---3-33-|-5-5--|-5------|
D|-------|--------|----7-|--5h7---|
G|-------|--------|------|-----7--|

Perdoname
E|-------|------|------|-------|-3-33-|------|
A|--3-3--|-3-3--|-3-3--|-3-3-5-|------|-7-7--|
D|-----5-|----5-|----5-|-------|------|------|
G|-------|------|------|-------|------|------|

Siempre me dabas
E|------|-----|-3-3-|------------|
A|------|-5-5-|-----|-5-----5-3--|
D|--7-7-|-----|-----|---5-3------|
G|------|-----|-----|------------|

Hoy mi vida es
E|-------|------|------|-------|-3-33-|------|
A|--3-3--|-3-3--|-3-3--|-3-3-5-|------|-7-7--|
D|-----5-|----5-|----5-|-------|------|------|
G|-------|------|------|-------|------|------|

por eso te pido
E|------|-----|-3-3-|-------|
A|------|-5-5-|-----|-7-77--|
D|--7-7-|-----|-----|-------|
G|------|-----|-----|-------|

musica
E|------|------|-------5-3--|
A|------|-5-55-|-----5------|
D|-7-77-|------|-5-5--------|
G|------|------|------------|

E|-------|-3----|--5-5--|--3----|--5-|----|
A|--3-35-|---57-|-3---5-|----57-|-3--|-5--|
D|-------|------|-------|-------|----|----|
G|-------|------|-------|-------|----|----|

Se que fui yo
E|--3-33-|------|------|-------5--|
A|-------|-7-77-|-3-33-|-5-5532---|
D|-------|------|------|----------|
G|-------|------|------|----------|

y tu dolor
E|--3-30-|-0------|------|----------|
A|-------|---3-3--|-5-5--|-5--------|
D|-------|------5-|----7-|---5h7----|
G|-------|--------|------|-------7--|

Perdoname
E|-------|------|------|-------|-3-33-|------|
A|--3-3--|-3-3--|-3-3--|-3-3-5-|------|-7-7--|
D|-----5-|----5-|----5-|-------|------|------|
G|-------|------|------|-------|------|------|

Siempre me dabas
E|------|-----|-3-3-|------------|
A|------|-5-5-|-----|-5-----5-3--|
D|--7-7-|-----|-----|---5-3------|
G|------|-----|-----|------------|

Hoy mi vida es
E|-------|------|------|-------|-3-33-|------|
A|--3-3--|-3-3--|-3-3--|-3-3-5-|------|-7-7--|
D|-----5-|----5-|----5-|-------|------|------|
G|-------|------|------|-------|------|------|

por eso te pido
E|------|-----|-3-3-|------|
A|------|-5-5-|-----|-7-7--|
D|--7-7-|-----|-----|------|
G|------|-----|-----|------|

Si tu me quieres tambien
E|------|-----|-----|------|
A|------|-----|-5-5-|-3-5--|
D|--7-7-|-7-7-|-----|------|
G|------|-----|-----|------|

Perdoname
E|-------|-3-3--|--3-|-3-----|-3--|
A|--3-33-|----5-|-5--|---2-5-|----|
D|-------|------|----|-------|----|
G|-------|------|----|-------|----|

atte miauricio gatolar
Suggest correction
Give kudos to tab author, rate the tab!
1 2 3 4 5
comments
print report bad tab
guest
You may want to rate the tab now too:
select rating
Wanna post a correction for this tab? Suggest correction