Oops, an error
Loading. Please wait.

Quise Olvidarme De Tí Tab

49 views 1 this week
no commentswrite comment
1 2 3 4 5
3 more votes to show rating
add to favorites
launch autoscroll
font size
0
reset
how to read this tab
guitar tuner
×
Best way to learn
"Quise Olvidarme De Tí"
Autoscroll
slow
fast
+/-
esc
set tempo
stop
Armoniza en LA menor

e-3-3-3-3/4\3------------------------------5-7-8-8-7/8\7-5---
B-5-5-5-5/6\5--5-5/6\5--5-5-5-3-1-5------------------------8-
G--------------5-5/6\5--5-5-5-4-2-5--5-5-5-------------------
D------------------------------------------------------------
A------------------------------------------------------------
E------------------------------------------------------------

e---5--------------5-5--------5-5-7-7--8-10-12-
B-6---8-6-5-6--8-8-----8-8-8-------------------
G----------------------------------------------
D----------------------------------------------
A----------------------------------------------
E----------------------------------------------
Suggest correction
Give kudos to tab author, rate the tab!
1 2 3 4 5
comments
print report bad tab
guest
You may want to rate the tab now too:
select rating
Wanna post a correction for this tab? Suggest correction