Oops, an error
Loading. Please wait.

Quise Olvidarme De Tí Bass

64 views 3 this week
no commentswrite comment
1 2 3 4 5
3 more votes to show rating
add to favorites
×
Save as Personal and add changes to this tab that will be seen only by you. Learn more ›
×
You can save this tab as Personal to edit and correct it or add notes. All changes will be seen only by you. Learn more »
save as personal
new!
launch autoscroll
font size
0
reset
guitar tuner
Autoscroll
slow
fast
+/-
esc
set tempo
stop
bueno bandera esta es mi primera transquipcion sobre todo de bajo
pero mas q nada echandole ganas,esta cancion esta padre,
espero y les agrade.

                           (intro)
    min;
g.]---------------------------------------------------------------
d.]---------------------------------------------------------------
a.]--3---33--33--3---0--00-----------------3--33--3--5--55-5------
e.]----------------2--------5/1---1-1--1--------------------3--33-

   00;49                       estrofa
g]--------------------------------------------------------------
d]--------------------------------------------------------------
a]-----------------------55--55--5---------------------7--7-7--7
e]--12/5-5--55--55--55--5----------1--1-1--1-1------------------


    01.07
d]-----------------------------------------------------------------
a]----------------5--55--5-------------------3-0-7-----------------
e]--5--55--55--5------------3--33--33--33--3----0--0-5--55--55--5--

d]--------------------------------------------------------------
a]--5--55--5-------------3--33--3---5--55--5-----------3--33--33
e]------------1--1-1--1----------------------3--33--3-----------


              se repite el coro pero cambia un poco
   01.50
a]-33--33--3----0--00----------------3-3-33--3--5--55-5-------
e]------------2-------5/1---1-1--1---------------------3--33--3--5--55-5-0

                          se regresa a la estrofa

                           final
    3.15
a]--------------------3--33--3---5--55--5-----------0--00--0----
e]----------1--1-1--1----------------------3--33--3--------------


a]---------------0-00-0-----------3-33-5-
e]-1--1-1-1-------------1--1--3-3--------3


espero y le aya gustado si encuentran algo mal diganme o corrijanlo
ya q es mi primera colaboracion aqui en la cuerda  bueno saludos
a todos los de autlan jalisco  de parte de=  victor '(cleto)'
bueno nos vemos pronto por aqui con otra colaboracion
gracias y asta pronto.
Suggest correction
Give kudos to tab author, rate the tab!
1 2 3 4 5
comments
print report bad tab
guest
Wanna post a correction for this tab? Suggest correction