Oops, an error
Loading. Please wait.

Si Tu Cariño No Está Tab

58 views 1 this week
no commentswrite comment
1 2 3 4 5
3 more votes to show rating
add to favorites
launch autoscroll
font size
0
reset
how to read this tab
guitar tuner
×
Best way to learn
"Si Tu Cariño No Está"
Autoscroll
slow
fast
+/-
esc
set tempo
stop
Armoniza en DO mayor

Este renglon se toca dos veces
e-----------5------5-----------
B-----5-6-8---8--6--8--6-8-6-5-
G-5-7--------------------------
D------------------------------
A------------------------------
E------------------------------

e--------------------------------------------------------
B-5-5-5---5-6--------------------------5-5-5---5-6-8-8-8-
G-------7-----7-7-7--7-7-7-5-4---------------7-----------
D------------------------------7-5-5-5-------------------
A--------------------------------------------------------
E--------------------------------------------------------

e--------------------------------
B-6-6-6-5------------------------
G---------7-5--5/7\5-------------
D--------------------5/7\5-------
A--------------------------5/7\5-
E--------------------------------
Suggest correction
Give kudos to tab author, rate the tab!
1 2 3 4 5
comments
print report bad tab
guest
You may want to rate the tab now too:
select rating
Wanna post a correction for this tab? Suggest correction