Oops, an error
Loading. Please wait.

Sin Ti Moriría Tab

28 views 1 this week
no commentswrite comment
1 2 3 4 5
3 more votes to show rating
add to favorites
launch autoscroll
font size
0
reset
how to read this tab
guitar tuner
×
Best way to learn
"Sin Ti Moriría"
Autoscroll
slow
fast
+/-
esc
set tempo
stop
Armoniza en Mi mayor
Introduccion de la cancion

e--9--9--9--9--9--9-7-7--7-7-5-5--5-5-4-4--
B-10-10-10-10-10-10-9-9--9-9-7-7--7-7-5-5--
G------------------------------------------

Intermedio de la cancion
e-------------------------------------------
B-9-9-9-9/10-9-7-----9-9-9-9/10-9-7---7-----
G----------------9-6----------------9---9-6-
D--------------------------------------------
A--------------------------------------------
E--------------------------------------------

e--9--9--9--9--9--9-7-7--7-7-5-5--5-5-4-4--
B-10-10-10-10-10-10-9-9--9-9-7-7--7-7-5-5--
G------------------------------------------
D------------------------------------------
A------------------------------------------
E------------------------------------------
Suggest correction
Give kudos to tab author, rate the tab!
1 2 3 4 5
comments
print report bad tab
guest
You may want to rate the tab now too:
select rating
Wanna post a correction for this tab? Suggest correction