Oops, an error
Loading. Please wait.

Tu Última Canción Tab

version 1
version 1

Whole song

67 views 1 this week
no commentswrite comment
1 2 3 4 5
3 more votes to show rating
add to favorites
launch autoscroll
font size
0
reset
how to read this tab
guitar tuner
Autoscroll
slow
fast
+/-
esc
set tempo
stop
Help us to improve Ultimate-Guitar.com Take our survey!
×
Hola que tal, esta es la primera vez que participo con una rola jeje
espero que les guste se escucha bien va,
bueno nos vemos y arriba los pumas jeje.


Este es el intro:

  Dm       Dm
e--1-------------------------
B--3-------6-----------------
G--2----------7--------------
D--0------7------7-----------
A------------5--5------------


Esta noche no,no quiero pensar en ti
           Dm               Gm
e--------------1----------------3--------
B------------2----2-----------3----3-----
G-----------3-3--3-3---------3-3--3-3----
D----------0-----------------------------
A---------------------------5------------
E----------------------------------------

y maña...na tratare de sobrevivir
     C          F
e--------1-----------1-------------------
B------1----1------1----1----------------
G-----0-0--0-0----2-2--2-2---------------
D----------------------------------------
A----3-----------3-----------------------
E----------------------------------------

escuchare  la voz          que me dice
   Dm        Gm             A
e-------------3----3---------------------
B----3-----------3----3--------2-2-2/5---
G---2-2---------3-3--3-3------2----------
D--0----------5--------------------------
A----------------------------0-----------
E----------------------------------------

que ya te olvide

e----------------------------------------
B---------6--8-8/10----------------------
G--------------------10/7 7--------------
D----------------------------------------
A----------------------------------------
E----------------------------------------


              Gm      C
No veras una lagrima mia llorar
        F  Dm        Gm
mas por ti....dejare tus recuerdos
     A             Dm
por ahi y despues Dios dira.
              Gm      C
no veras una lagrima mia llorar
        F                  Dm
ni mis labios tu nombre gritar
               Gm   A       Dm
solo hare para ti. esta tu ultima

cancion.
            Gm     C            F
y sera la ultima noche que te quiera
            Dm           Gm
la ultima noche que te brinde, juro
 A        Dm
que te olvidare.
    Gm  C
y sere
      F            Dm         Gm  A
mas feliz que tu y no, no podras nunca
  Dm       F#m-Fm-Em-A
olvidarme.
 G                       D       B7
Crei ver en el rostro de tu alma
      Em         A7       D        D7
un inmenso amor pero me equivoque.
 G                     D
Sueño cruel despues de tantas noches
    F#m          Em  A7
de amor, nada quedo solo, solo tu
 D
cancion.


                       Acordes

   Dm  Dm Gm   C   F   A  F#m Fm  Em   G   D  B7  A7  D7
e---1---5---3---0---1---0---2---1---0---3---2---2---0---2---
B---3---6---3---1---1---2---2---1---0---3---3---4---2---1---
G---2---7---3---0---2---2---2---1---0---0---2---2---0---2---
D---0---7---5---2---3---2---4---3---2---0---0---4---2---0---
A-------5---5---3---3---0---4---3---2---2-------2---0-------
E-----------3-------1-------2---1---0---3-------2-----------


bueno esta cancion me gusta por eso decidi sacarla ademas
va para una chava "esta es su ultima cancion"
Suggest correction
Give kudos to tab author, rate the tab!
1 2 3 4 5
comments
print report bad tab
guest
You may want to rate the tab now too:
select rating
Wanna post a correction for this tab? Suggest correction