Oops, an error
Loading. Please wait.

Tu Última Canción Tab

version 2
version 2

Whole song

13 views 1 this week
no commentswrite comment
1 2 3 4 5
3 more votes to show rating
add to favorites
launch autoscroll
font size
0
reset
how to read this tab
guitar tuner
×
Best way to learn
"Tu última Canción"
Autoscroll
slow
fast
+/-
esc
set tempo
stop
ESTE ES EL INTRO CON TECLADO ESTA PAPA

e--0----1----0---------------
B--3----------------3--------
G--2--2----2-----2-----------
D----------------------------


esta noche no, no quiero pensar en
   Dm               Gm             C
e-----------1---------------3---------------3---------
B--3----------3-----3---------3-----5---------5-------
G----2---2------2-----3---3-----3-----5---5-----5-----
D------0----------0-----4---------4-----5---------5---
   F      Dm             Gm            A             Dm
e---------1---------------------3--------------------1-----3-3/5--1---1-
B--1--------3-------3-----3-------3-----2--------------3------------2---
G----2--2-----2---2---1-1---3-------3-----2---3-3/5------2--------------
D------3--------0-------------4-------4-----2---------------------------

           Dm               Gm
esta noche no, no quiero pensar en
        C       F            Dm
ti y mañana tratare de sobrevivir
              Gm              A
escuchare la voz que me dice que
          Dm
ya te olvide.
              Gm      C
no veras una lagrima mia llorar
        F  Dm        Gm
mas por ti....dejare tus recuerdos
     A             Dm
por ahi y despues Dios dira.
              Gm      C
no veras una lagrima mia llorar
        F                  Dm
ni mis labios tu nombre gritar
               Gm   A       Dm
solo hare para ti. esta tu ultima

cancion.
            Gm     C            F
y sera la ultima noche que te quiera
            Dm           Gm
la ultima noche que te brinde, juro
 A        Dm
que te olvidare.
    Gm  C
y sere
      F            Dm         Gm  A
mas feliz que tu y no, no podras nunca
  Dm       F#m-Fm-Em-A
olvidarme.
 G                       D       B7
Crei ver en el rostro de tu alma
      Em         A7       D        D7
un inmenso amor pero me equivoque.
 G                     D
Sueño cruel despues de tantas noches
    F#m          Em  A7
de amor, nada quedo solo, solo tu
 D
cancion.
Suggest correction
Give kudos to tab author, rate the tab!
1 2 3 4 5
comments
print report bad tab
guest
You may want to rate the tab now too:
select rating
Wanna post a correction for this tab? Suggest correction