Oops, an error
Loading. Please wait.

Una Lágrima Más Tab

49 views 1 this week
no commentswrite comment
1 2 3 4 5
3 more votes to show rating
add to favorites
launch autoscroll
font size
0
reset
how to read this tab
guitar tuner
Autoscroll
slow
fast
+/-
esc
set tempo
stop
Help us to improve Ultimate-Guitar.com Take our survey!
×
Armoniza en RE mayor

Esta renglon es la introduction y Final de la cancion
e-7--7--7--5--3--2--2--2---0---------7--5--3--2-
B-8--8--8--7--5--3--3--3---1--3-2/7--8--7--5--3-
G-----------------------------4-2/7-------------

e-5--5--5--3--2--5--5--5--5--5--10--9--7--7/8---------
B-7--7--7--5--3--7--7--7--7--7--12-10--8--8/9---------
G---------------------------------------------7/9-----
D-------------------------------------------------7/9-

e-7--7--7--5--3--7--7--7--7--7--15--14--12---12---12--
B-8--8--8--7--5--8--8--8--8--8--17--15--14-14---14----
G-----------------------------------------------------


e-5--5--5--3--2--5--5--5--5--5--10--9--7--7-7/8--------
B-7--7--7--5--3--7--7--7--7--7--12-10--8--8-8/9--------
G-----------------------------------------------7/9----
D--------------------------------------------------7/9-


e-7--7--7--5--3--7--7---7--7--7--5--3--2--2--2--
B-8--8--8--7--5--8--8---8--8--8--7--5--3--3--3--
G-----------------------------------------------

e-0---------7--5--3--2-
B-1--3-2/7--8--7--5--3-
G----4-2/7-------------
Suggest correction
Give kudos to tab author, rate the tab!
1 2 3 4 5
comments
print report bad tab
guest
You may want to rate the tab now too:
select rating
Wanna post a correction for this tab? Suggest correction