Oops, an error
Loading. Please wait.

Volveré De Mi Viaje Tab

31 views 1 this week
no commentswrite comment
1 2 3 4 5
3 more votes to show rating
add to favorites
launch autoscroll
font size
0
reset
how to read this tab
guitar tuner
×
Best way to learn
"Volveré De Mi Viaje"
Autoscroll
slow
fast
+/-
esc
set tempo
stop
(LA cuerda ligeramente
 bend hacia arriba)    = ^

(Deslizamiento de la
cuerda)                = /

(5,6,8,10,... etc)     = # de traste en la guitarra.


e-5-55-66-6/8^-6/8^-----
B-----------------------
G-----------------------
D-----------------------
A-----------------------
E-----------------------

e-----------------------
B-8-88-1010/11^-10/11^--
G-----------------------
D-----------------------
A-----------------------
E-----------------------

e-----------------------
B-6-66-88/10^-8/10^-----
G-----------------------
D-----------------------
A-----------------------
E-----------------------

e-----------------------
B-5-6-8-6-88^^----------
G-----------------------
D-----------------------
A-----------------------
E-----------------------


e-5-55-66-6/8^-6/8^-----
B-----------------------
G-----------------------
D-----------------------
A-----------------------
E-----------------------

e-----------------------
B-8-88-1010/11^-10/11^--
G-----------------------
D-----------------------
A-----------------------
E-----------------------

e-----------------------
B-6-66-88/10^-8/10^-----
G-----------------------
D-----------------------
A-----------------------
E-----------------------

e-----------------------
B-5-6-8-6-5-6-----------
G-----------------------
D-----------------------
A-----------------------
E-----------------------

FA             SOLm   DO7
Tu carita muy triste
                LAm7  REm7
Y tus ojos llorosos
                   SOLm   LA7
Tu mano blanca al viento
              FA
Diciendome adios
                  SOLm  LA7
El cabello en tu cara
               LAm7  REm7
Y esa triste mirada
                  SOLm   DO7
He llevado en mi alma
                     FA
Desde el dia que parti
              FA
Y tu primera pena cuando tome
                    SOLm  DO7
tu mano esa tarde serena
                SOLm
Y el rubor de mejillas cuando tu
       DO7                        FA
primer beso me lo entregaste a mi
                 FA
No perdi la esperanza de volver a
                   FA7          SIb
estar juntos y primero Dios mañana
  SIbm              FA
Volvere de mi viaje
               SOLm            DO7
Tengo listo el pasaje para estar
         FA
junto a ti.

e-5-55-66-6/8^-6/8^-----
B-----------------------
G-----------------------
D-----------------------
A-----------------------
E-----------------------

e-----------------------
B-8-88-1010/11^-10/11^--
G-----------------------
D-----------------------
A-----------------------
E-----------------------

e-----------------------
B-6-66-88/10^-8/10^-----
G-----------------------
D-----------------------
A-----------------------
E-----------------------

e-----------------------
B-5-6-8-6-88^^----------
G-----------------------
D-----------------------
A-----------------------
E-----------------------
                        SOLm   DO7
Este tiempo que estuve lejos
              LAm7       REm7
Extrañandote dia y noche
               SOLm       DO7
Aprendi que sin tu cariño
               FA
Yo no puedo vivir.
              MIm            DO7
Recordaba tu amor tan blanco
             LAm7          REm7
Tu risa, tambien tu llanto
               SOLm        DO7
Mil detalles y tantas cosas
                 FA
Que yo tengo de ti.

Y tu primera pena cuando tome
                    SOLm  DO7
tu mano esa tarde serena
               SOLm
Y el rubor de mejillas cuando tu
      DO7                        FA
primer beso me lo entregaste a mi
                 FA
No perdi la esperanza de volver a
                   FA7          SIb
estar juntos y primero Dios mañana
 SIbm            FA
Volvere de mi viaje
                SOLm          DO7
Tengo listo el pasaje para estar
         FA
junto a ti.
Bbm              FA
Volvere de mi viaje
                Gm            DO7
Tengo listo el pasaje para estar
         FA
junto a tiiii.
Suggest correction
Give kudos to tab author, rate the tab!
1 2 3 4 5
comments
print report bad tab
guest
You may want to rate the tab now too:
select rating
Wanna post a correction for this tab? Suggest correction