Oops, an error
Loading. Please wait.

Allí Todo Es Luz Tab

32 views 3 this week
no commentswrite comment
1 2 3 4 5
3 more votes to show rating
add to favorites
×
Save as Personal and add changes to this tab that will be seen only by you. Learn more ›
×
You can save this tab as Personal to edit and correct it or add notes. All changes will be seen only by you. Learn more »
save as personal
new!
launch autoscroll
font size
0
reset
how to read this tab
guitar tuner
Autoscroll
slow
fast
+/-
esc
set tempo
stop
        INTRO
      D               Bm                G              A
E---------------/-2-------------/---------------/---------------/
B----3---3------/-2----3---3----/----3---3------/----5---5------/
G---2-2-2-2-----/-2---4-4-4-4---/---4-4-4-4-----/---6-6-6-6-----/
D--0---0---0----/-2-------------/--5---5---5----/--7---7---7----/
A---------------/-2--2---2---2--/---------------/---------------/
E---------------/-2-------------/---------------/---------------/


letra (bajeos con guitarra electrica)

        D                 Bm
E-----------------/-----------------/
B-----------------/-----------------/
G-----------------/-----------------/
D-7-7-7-7-7-7-7-7-/-4-4-4-4-4-4-4-4-/
A-5-5-5-5-5-5-5-5-/-2-2-2-2-2-2-2-2-/
E-----------------/-----------------/

  Allí no habrá      necesidad         ,

          G                 A
E-----------------/-----------------/
B-----------------/-----------------/
G-----------------/-----------------/
D-----------------/-----------------/
A-5-5-5-5-5-5-5-5-/-7-7-7-7-7-7-7-7-/
E-3-3-3-3-3-3-3-3-/-5-5-5-5-5-5-5-5-/
  de nada de          lo material

        D                 Bm
E-----------------/-----------------/
B-----------------/-----------------/
G-----------------/-----------------/
D-7-7-7-7-7-7-7-7-/-4-4-4-4-4-4-4-4-/
A-5-5-5-5-5-5-5-5-/-2-2-2-2-2-2-2-2-/
E-----------------/-----------------/
  no habrá razón     para llorar,

          G                 A
E-----------------/-----------------/
B-----------------/-----------------/
G-----------------/-----------------/
D-----------------/-----------------/
A-5-5-5-5-5-5-5-5-/-7-7-7-7-7-7-7-7-/
E-3-3-3-3-3-3-3-3-/-5-5-5-5-5-5-5-5-/
  excepto por      felicidad        y

      D               Bm                G              A
E---------------/-2-------------/---------------/---------------/
B----3---3------/-2----3---3----/----3---3------/------5--------/
G---2-2-2-2-----/-2---4-4-4-4---/---4-4-4-4-----/---------------/
D--0---0---0----/-2-------------/--5---5---5----/------7--------/
A---------------/-2--2---2---2--/---------------/---------------/
E---------------/-2-------------/---------------/---------------/
     amooooooooor

                        CORO
        G              A                D              Bm
E---------------/---------------/---------------/-2-------------/
B----3---3------/----5---5------/----3---3------/-2----3---3----/
G---4-4-4-4-----/---6-6-6-6-----/---2-2-2-2-----/-2---4-4-4-4---/
D--5---5---5----/--7---7---7----/--0---0---0----/-2-------------/
A---------------/---------------/---------------/-2--2---2---2--/
E---------------/---------------/---------------/-2-------------/
   Allí todo es luz,allí sólo hay paz,y alegría plenamente.

        G              A                D              Bm
E---------------/---------------/---------------/-2-------------/
B----3---3------/----5---5------/----3---3------/-2----3---3----/
G---4-4-4-4-----/---6-6-6-6-----/---2-2-2-2-----/-2---4-4-4-4---/
D--5---5---5----/--7---7---7----/--0---0---0----/-2-------------/
A---------------/---------------/---------------/-2--2---2---2--/
E---------------/---------------/---------------/-2-------------/
 Allí no hay temor,allí no hay dolor,todo es tan diferente.

        G              A                D              Bm
E---------------/---------------/---------------/-2-------------/
B----3---3------/----5---5------/----3---3------/-2----3---3----/
G---4-4-4-4-----/---6-6-6-6-----/---2-2-2-2-----/-2---4-4-4-4---/
D--5---5---5----/--7---7---7----/--0---0---0----/-2-------------/
A---------------/---------------/---------------/-2--2---2---2--/
E---------------/---------------/---------------/-2-------------/
Allí no hay heridas,allí no hay espinas,sólo amor continuamente.

        G              A
E---------------/---------------/
B----3---3------/------5--------/
G---4-4-4-4-----/---------------/
D--5---5---5----/------7--------/
A---------------/---------------/
E---------------/---------------/
  A ese lugar, allí he de volar      para vivir eterna......

      D               Bm                G              A
E---------------/-2-------------/---------------/---------------/
B----3---3------/-2----3---3----/----3---3------/----5---5------/
G---2-2-2-2-----/-2---4-4-4-4---/---4-4-4-4-----/---6-6-6-6-----/
D--0---0---0----/-2-------------/--5---5---5----/--7---7---7----/
A---------------/-2--2---2---2--/---------------/---------------/
E---------------/-2-------------/---------------/---------------/
   ..mente

        D                 Bm
E-----------------/-----------------/
B-----------------/-----------------/
G-----------------/-----------------/
D-7-7-7-7-7-7-7-7-/-4-4-4-4-4-4-4-4-/
A-5-5-5-5-5-5-5-5-/-2-2-2-2-2-2-2-2-/
E-----------------/-----------------/

 Allí no habrá      más soledad
          G                 A
E-----------------/-----------------/
B-----------------/-----------------/
G-----------------/-----------------/
D-----------------/-----------------/
A-5-5-5-5-5-5-5-5-/-7-7-7-7-7-7-7-7-/
E-3-3-3-3-3-3-3-3-/-5-5-5-5-5-5-5-5-/
  porque su voz       escucharás,

       D                 Bm
E-----------------/-----------------/
B-----------------/-----------------/
G-----------------/-----------------/
D-7-7-7-7-7-7-7-7-/-4-4-4-4-4-4-4-4-/
A-5-5-5-5-5-5-5-5-/-2-2-2-2-2-2-2-2-/
E-----------------/-----------------/
   y te dirá:        "acércate,
         G                 A
E-----------------/-----------------/
B-----------------/-----------------/
G-----------------/-----------------/
D-----------------/-----------------/
A-5-5-5-5-5-5-5-5-/-7-7-7-7-7-7-7-7-/
E-3-3-3-3-3-3-3-3-/-5-5-5-5-5-5-5-5-/
qué cosas bellas   yo preparé        para ti...

      D               Bm                G              A
E---------------/-2-------------/---------------/---------------/
B----3---3------/-2----3---3----/----3---3------/------5--------/
G---2-2-2-2-----/-2---4-4-4-4---/---4-4-4-4-----/---------------/
D--0---0---0----/-2-------------/--5---5---5----/------7--------/
A---------------/-2--2---2---2--/---------------/---------------/
E---------------/-2-------------/---------------/---------------/
                                 , para ti."


                       CORO
        G              A                D              Bm
E---------------/---------------/---------------/-2-------------/
B----3---3------/----5---5------/----3---3------/-2----3---3----/
G---4-4-4-4-----/---6-6-6-6-----/---2-2-2-2-----/-2---4-4-4-4---/
D--5---5---5----/--7---7---7----/--0---0---0----/-2-------------/
A---------------/---------------/---------------/-2--2---2---2--/
E---------------/---------------/---------------/-2-------------/
   Allí todo es luz,allí sólo hay paz,y alegría plenamente.

        G              A                D              Bm
E---------------/---------------/---------------/-2-------------/
B----3---3------/----5---5------/----3---3------/-2----3---3----/
G---4-4-4-4-----/---6-6-6-6-----/---2-2-2-2-----/-2---4-4-4-4---/
D--5---5---5----/--7---7---7----/--0---0---0----/-2-------------/
A---------------/---------------/---------------/-2--2---2---2--/
E---------------/---------------/---------------/-2-------------/
 Allí no hay temor,allí no hay dolor,todo es tan diferente.

        G              A                D              Bm
E---------------/---------------/---------------/-2-------------/
B----3---3------/----5---5------/----3---3------/-2----3---3----/
G---4-4-4-4-----/---6-6-6-6-----/---2-2-2-2-----/-2---4-4-4-4---/
D--5---5---5----/--7---7---7----/--0---0---0----/-2-------------/
A---------------/---------------/---------------/-2--2---2---2--/
E---------------/---------------/---------------/-2-------------/
Allí no hay heridas,allí no hay espinas,sólo amor continuamente.

        G              A
E---------------/---------------/
B----3---3------/------5--------/
G---4-4-4-4-----/---------------/
D--5---5---5----/------7--------/
A---------------/---------------/
E---------------/---------------/
  A ese lugar, allí he de volar      para vivir eterna......

      D               Bm                G              A
E---------------/-2-------------/---------------/---------------/
B----3---3------/-2----3---3----/----3---3------/----5---5------/
G---2-2-2-2-----/-2---4-4-4-4---/---4-4-4-4-----/---6-6-6-6-----/
D--0---0---0----/-2-------------/--5---5---5----/--7---7---7----/
A---------------/-2--2---2---2--/---------------/---------------/
E---------------/-2-------------/---------------/---------------/
   ..mente                                                          .

     D               Bm                G              A
E---------------/-2-------------/---------------/---------------/
B----3---3------/-2----3---3----/----3---3------/----5---5------/
G---2-2-2-2-----/-2---4-4-4-4---/---4-4-4-4-----/---6-6-6-6-----/
D--0---0---0----/-2-------------/--5---5---5----/--7---7---7----/
A---------------/-2--2---2---2--/---------------/---------------/
E---------------/-2-------------/---------------/---------------/
  para vivir eternamente


      Bm                G              A               D
E-2-------------/---------------/---------------/---------------/
B-2----3---3----/----3---3------/------5--------/----3---3------/
G-2---4-4-4-4---/---4-4-4-4-----/---------------/---2-2-2-2-----/
D-2-------------/--5---5---5----/------7--------/--0---0---0----/
A-2--2---2---2--/---------------/---------------/---------------/
E-2-------------/---------------/---------------/---------------/
  para vivir eternamente  Allí todo es luz, alli todo es luz,

     Bm                G              A               D
E-2-------------/---------------/---------------/---------------/
B-2----3---3----/----3---3------/------5--------/----3---3------/
G-2---4-4-4-4---/---4-4-4-4-----/---------------/---2-2-2-2-----/
D-2-------------/--5---5---5----/------7--------/--0---0---0----/
A-2--2---2---2--/---------------/---------------/---------------/
E-2-------------/---------------/---------------/---------------/
    Allí todo es luz,            Jesus is the light

      Bm                G              A               D
E-2-------------/---------------/---------------/---------------/
B-2----3---3----/----3---3------/------5--------/----3---3------/
G-2---4-4-4-4---/---4-4-4-4-----/---------------/---2-2-2-2-----/
D-2-------------/--5---5---5----/------7--------/--0---0---0----/
A-2--2---2---2--/---------------/---------------/---------------/
E-2-------------/---------------/---------------/---------------/
    Allí todo es luz,            Jesus is the light

     Bm                G              A               D
E-2-------------/---------------/---------------/---------------/
B-2----3---3----/----3---3------/------5--------/----3---3------/
G-2---4-4-4-4---/---4-4-4-4-----/---------------/---2-2-2-2-----/
D-2-------------/--5---5---5----/------7--------/--0---0---0----/
A-2--2---2---2--/---------------/---------------/---------------/
E-2-------------/---------------/---------------/---------------/
    Allí todo es luz,            Jesus is the light

   Bm                G              A               D
E-2-------------/---------------/---------------/---------------/
B-2----3---3----/----3---3------/------5--------/----3---3------/
G-2---4-4-4-4---/---4-4-4-4-----/---------------/---2-2-2-2-----/
D-2-------------/--5---5---5----/------7--------/--0---0---0----/
A-2--2---2---2--/---------------/---------------/---------------/
E-2-------------/---------------/---------------/---------------/
    Allí todo es luz,            Allí todo es luz,


fin si quieren le siguen si no no ahi acaba bueno comentarios
sugerencias seran bn aceptadas agradesco a mi harmano en cristo
y amigo victor manuel peña valdez por ayudarme a sacar este canto
y departe de un servidor juan carlos cruz hidalgo me despido con
esta nuestra primer cancion esperamos q no sea la ultima
si quieren una cancion en especial pidanolas y nosotros con gusto
la pondremos en esta pagina escribanos al correo de juan carlos es
juan_cruz1@ o a victor torvic_pev92@ saludos desde
tlaltizapan morelos mexico si nosotros somos de la iglesia monte
sinai de este mismo municipio bueno nos despedimos de ustedes ya
saben comentarios peticiones y dudas a los correos mencionados
bueno adios dlbm
Suggest correction
Give kudos to tab author, rate the tab!
1 2 3 4 5
comments
print report bad tab
guest
Wanna post a correction for this tab? Suggest correction