Oops, an error
Loading. Please wait.

Duermete Junto A Mí Tab

23 views 1 this week
no commentswrite comment
1 2 3 4 5
3 more votes to show rating
add to favorites
launch autoscroll
font size
0
reset
how to read this tab
guitar tuner
×
Best way to learn
"Duermete Junto A Mí"
Autoscroll
slow
fast
+/-
esc
set tempo
stop
Album: El rock no ha muerto
Tabbed by: Roberto 'quien camina por las calles del tercer mundo ' Ferrín

Esta es la tablatura completa!

Verse:
      C         F
Quien eres tú
             Em             F              Em   
que ahora te vas, quieres dejarme atrás....tú
             F
Que ya no regresaras
Dm                Em
   y los años que pasaron, en donde estan
Dm                    F           G
   las palabras se quedaron en ningún lugar

      C        F
Quien eres tú
                Em               F
el silencio del mundo, no puedo oír tu voz
  Em                  F
y yo      la busco en mi canción
Dm                 Em
   sin razones ni secretos, sin decirme nada
Dm                      F
   sin ninguna explicación
G
   sin corazón


Chorus:
C                    G
Vas y vuelves no encuentras tu lugar
D                             Dm
donde estas, donde vas, donde te vas a quedar
Am
no hay arroz, y un adios
      G
velos junto a una canción
D                        Dm
traje gris, aros, ligas, día de calor


D                       A                          G     Bm A
El llamaba ser la dueña de su corazón   todo en su vida
D                     A                       G     Bm A
el solía ir hasta sus brazos para terminar el día
Bm                          A
Duermete junto a mi no me alejare de tí
E                      G        A
los años pasarán dando para recibir


Guitar solo:
        A#          G#                  D#
e)|--------------------------------------------|
b)|---------------5/6(sustain)-------6---------|
g)|------------3---------------8-7-8----7/3-3--|
d)|-8/3------3---------------------------------|
a)|--------------------------------------------|
e)|-----6/1------------------------------------|

               F#    G#                      A#
e)|----------------------------------------------|
b)|--------------6-4--------4-------4------------|
g)|---3-5--6-5-3-----5--3-5---5-3-----5/6-5------|
d)|-3-----------------------------------------3--|
a)|------------------------------------------3---|
e)|----------------------------------------------|

                    G#               D#
e)|------6-8--10/6--13-11-11-10--------10-13-10---10-13-10--|
b)|--6-8------------------------11---13---------13----------|
g)|---------------------------------------------------------|
d)|---------------------------------------------------------|
a)|---------------------------------------------------------|
e)|---------------------------------------------------------|

          F
e)|---10--13-10-11-10--13-10-11-10---13-10--|
b)|-13--------------------------------------|
g)|-----------------------------------------|
d)|-----------------------------------------|
a)|-----------------------------------------|
e)|-----------------------------------------|

    A#
e)|-13-11-10----------13-11-----13/18-----|
b)|----------11-------------11------------|
g)|-------------10------------------------|
d)|---------------------------------------|
a)|---------------------------------------|
e)|---------------------------------------|

           C    F                 Em               F
Quien eres tú       las calles me miran, las ganas de gritar
     Em                 F       G
y al fin   quien nos contestara


Chorus:
C                    G
Vas y vuelves no encuentras tu lugar
D                             Dm
donde estas, donde vas, donde te vas a quedar
Am
no hay arroz, y un adios
      G
velos junto a una canción
D                        Dm
traje gris, aros, ligas, día de calor

D                       A                         G   Bm A
Si era para el tan importante talvez hoy no lo sería
D                         A                       G   Bm A
porque suele ir hasta sus brazos para terminar el día
Bm                         A
Duermete junto a mi no me alejare de ti
E                      G        A
los años pasaran dando para recibir

D                       A                        G    Bm A
El llamaba ser la dueña de su corazón todo en su vida
D                     A                       G     Bm A
el solia ir hasta sus brazos para terminar el día
Bm                         A 
Duermete junto a mi no me alejare de ti
E
los años pasaran dando


Finaliza con esta parte tocada en bajo 
(aquí está tabulada para guitarra)
g)|-----------------|
d)|-----------------|
a)|-----------------|  
e)|--0--5--6-7------|


Estoy seguro de que en esta tablatura no hay errores, espero que le sirva a alguien.
Comentarios o dudas E-mail a: rferrin@
Suggest correction
Give kudos to tab author, rate the tab!
1 2 3 4 5
comments
print report bad tab
guest
You may want to rate the tab now too:
select rating
Wanna post a correction for this tab? Suggest correction