Oops, an error
Loading. Please wait.

La Frágil Tab

4 views 1 this week
no commentswrite comment
1 2 3 4 5
3 more votes to show rating
add to favorites
launch autoscroll
font size
0
reset
how to read this tab
guitar tuner
×
Best way to learn
"La Frágil"
Autoscroll
slow
fast
+/-
esc
set tempo
stop
Tabbed by: Roberto 'quien abrió el Gran Portal' Ferrín

Nota: esta es la versión del disco '100 años', que es un poco diferente a la original.

Intro:

e) |--------12-------12----------------12-------12------|
b) |-----15-------15-------15-------15-------15----15---|
g) |--14-------14-------14-------14-------14------------|
d) |----------------------------------------------------|
a) |----------------------------------------------------|
e) |----------------------------------------------------|

e) |--------12-------12----------12-------12------------|
b) |-----15-------15-------15-------15-------15----15---|
g) |--14-------14-------14-------------14-------14------|
d) |----------------------------------------------------|
a) |----------------------------------------------------|
e) |----------------------------------------------------|

e) |--------12-------12----------------12-------12------|
b) |-----15-------15-------15-------15-------15----15---|
g) |--14-------14-------14-------14-------14------------|
d) |----------------------------------------------------|
a) |----------------------------------------------------|
e) |----------------------------------------------------|

e) |--------12-------12-------12-------12-----|
b) |-----15-------15-------15-------15--------|
g) |--14-------14-------14-------14-----------|
d) |------------------------------------------|
a) |------------------------------------------|
e) |------------------------------------------|

Verse:
      D             G    A
e) |--------0----------------0--------------|
b) |------3---3--3-----3---3----------------|
g) |----2----------------2------------------|
d) |--0-------------------------------------|
a) |----------------------------------------|
e) |----------------------------------------|
      Eres tan frágil que me asusta abrazarte
      eres tan tierna que me asusta tocar tu piel
      eres perfecta y yo quiero tenerte

      D                        C  A
e) |--------0------------------0--0----|
b) |------3---3----------------1--2----|
g) |----2----------------------0--2----|
d) |--0------------------------2--2----|
a) |---------------------------3--0----|
e) |-----------------------------------|
      pero no puedo  estás muy lejos

       D                G  G    A  A
e) |-------------------------------------|
b) |-------------------------------------|
g) |---7---7-7---7-7---------------------|
d) |---7---7-7---7-7----5--5----7--7-----|
a) |--------------------5--5----7--7-----|
e) |-------------------------------------|
    Es muy difícil encontrar alguien como tú
    eres la luz de toda esta obscuridad
    eres la balsa que me salva de este mar

       D   D D   D D    C  C  (A)
e) |--------------------------------------|
b) |--------------------8--8--(10)--------|
g) |---7---7-7---7-7----9--9--( 9)--------|
d) |---7---7-7---7-7----------------------|
a) |--------------------------------------|
e) |--------------------------------------|
      pero no puedo estás muy lejos.

Chorus:
      D    C C  G G G  A A
e) |--10---8-8--3-3-3--5-5--------|
b) |--10---8-8--3-3-3--5-5--------|
g) |--11---9-9--4-4-4--6-6--------|
d) |------------------------------|
a) |------------------------------|
e) |------------------------------|
    Quiero tenerte siempre a mi lado

       D     C C   C    G G# A
e) |---10----8-8---8----3-4--5-------|
b) |---10----8-8---8----3-4--5-------|
g) |---11----9-9---9----4-5--6-------|
d) |---------------------------------|
a) |---------------------------------|
e) |---------------------------------|
    quiero que seas solo para mí

      D    C C  G G G  A A
e) |--10---8-8--3-3-3--5-5--------|
b) |--10---8-8--3-3-3--5-5--------|
g) |--11---9-9--4-4-4--6-6--------|
d) |------------------------------|
a) |------------------------------|
e) |------------------------------|
    quiero tenerte siempre a mi lado

       D     C C   C    G G# A A A///
e) |---10----8-8---8----3-4--5-5-5///----|
b) |---10----8-8---8----3-4--5-5-5///----|
g) |---11----9-9---9----4-5--6-6-6///----|
d) |-------------------------------------|
a) |-------------------------------------|
e) |-------------------------------------|
    quiero que seas solo para mí.

      D5                 G5 C5 C5 G5  G5                      A5
e) |---------------------------------------------------------------|
b) |---------------------------------------------------------------|
g) |--7----------------------5--5----------------------------------|
d) |--7------------------5---5--5-5---5-----------------------7----|
a) |--5------------------5---3--3-5---5-----------------------7----|
e) |---------------------3--------3---3-----------------------5----|
      Estás tan lejos de mí           como una estrella en el cielo
      estás tan lejos de mí           como un ave en pleno vuelo
      Estás tan lejos de mí           como una estrella en el cielo

      D5                 G5 C5 C5 G5  G5                      
e) |--------------------------------------------------------------|
b) |--------------------------------------------------------------|
g) |--7----------------------5--5---------------------------------|
d) |--7------------------5---5--5-5---5----5-6-7------------------|
a) |--5------------------5---3--3-5---5----5-6-7------------------|
e) |---------------------3--------3---3----3-4-5------------------|
      estás tan lejos de mí creo que nunca       voy a llegar a tí.

Luego se toca esta parte:
e) |--------12-------12----------------12-------12------|
b) |-----15-------15-------15-------15-------15----15---|
g) |--14-------14-------14-------14-------14------------|
d) |----------------------------------------------------|
a) |----------------------------------------------------|
e) |----------------------------------------------------|

e) |--------12-------12-------12-------12-----|
b) |-----15-------15-------15-------15--------|
g) |--14-------14-------14-------14-----------|
d) |------------------------------------------|
a) |------------------------------------------|
e) |------------------------------------------|

Verse 2: (con la misma estructura del verse anterior)

Sería hermoso amanecer a tu lado
si duermo solo amanece nublado
eres perfecta y yo quiero tenerte
no sé por qué tendré tan mala suerte

Tu mundo es otro muy distinto del mío
no he visto el tuyo pero el mío es muy frío
eres perfecta y yo quiero tenerte
pero no puedo estás muy lejos.


Luego viene el punteo de guitarra, que no lo he sacado debido a que 
el parlante izquierdo de mi cd player se ha quemado y para mi mala 
suerte el punteo de guitarra se escucha sólo por este canal 
(mil y una disculpas).
En fin, el solo va acompañado con los acordes del coro.

Después del solo se toca esto:
      C  D   C Am  F  G
e) |--8--9---8--8--13-15---|
b) |--8--9---8-10--13-15---|
g) |--9-10---9--9--14-16---|Esto se toca 2 veces.
d) |-----------------------|
a) |-----------------------|
e) |-----------------------|


Y luego se toca esta parte:
      D           G       A
e) |----------------------------|
b) |--3-2-3-2-3---3-2-3-2-3-2---|
g) |--2-2-2-2-2---2-2-2-2-2-2---|
d) |----------------------------|
a) |----------------------------|
e) |----------------------------|

Y luego se repite esta parte:
      D5                 G5 C5 C5 G5  G5                      A5
e) |---------------------------------------------------------------|
b) |---------------------------------------------------------------|
g) |--7----------------------5--5----------------------------------|
d) |--7------------------5---5--5-5---5-----------------------7----|
a) |--5------------------5---3--3-5---5-----------------------7----|
e) |---------------------3--------3---3-----------------------5----|
      Estás tan lejos de mí           como una estrella en el cielo
      estás tan lejos de mí           como un ave en pleno vuelo
      Estás tan lejos de mí           como una estrella en el cielo

D5                 G5 C5 C5 G5  G5                      
e) |--------------------------------------------------------------|
b) |--------------------------------------------------------------|
g) |--7----------------------5--5---------------------------------|
d) |--7------------------5---5--5-5---5----5-6-7------------------|
a) |--5------------------5---3--3-5---5----5-6-7------------------|
e) |---------------------3--------3---3----3-4-5------------------|
      estás tan lejos de mí creo que nunca       voy a llegar a tí.

Outro:
e) |--------12-------12----------------12-------12------12--|
b) |-----15-------15-------15-------15-------15----15---15--|
g) |--14-------14-------14-------14-------14------------14--|
d) |--------------------------------------------------------|
a) |--------------------------------------------------------|
e) |--------------------------------------------------------|

Y así es como yo toco 'la frágil', espero que te sirva de algo.

Comentarios, correcciones, Bienvenido :-)
rferrin@
Suggest correction
Give kudos to tab author, rate the tab!
1 2 3 4 5
comments
print report bad tab
guest
You may want to rate the tab now too:
select rating
Wanna post a correction for this tab? Suggest correction