Oops, an error
Loading. Please wait.

Si Alguna Vez Te Amé Tab

10 views 1 this week
no commentswrite comment
1 2 3 4 5
3 more votes to show rating
add to favorites
×
Save as Personal and add changes to this tab that will be seen only by you. Learn more ›
×
You can save this tab as Personal to edit and correct it or add notes. All changes will be seen only by you. Learn more »
save as personal
new!
launch autoscroll
font size
0
reset
how to read this tab
guitar tuner
Autoscroll
slow
fast
+/-
esc
set tempo
stop
Tabbed by: Roberto 'quien aprendió a flotar como molécula de agua' Ferrín


Intro: 
       Gm             A#
e) |------------------------------|
b) |-------3--------------6-------|
g) |---------3--------------7-----| Esta parte se toca varias
d) |-----------5--------------8---| veces (unas 3 creo) y se 
a) |-------------5----------------| disminuye el volume.
e) |---(3)------------(6)---------|

Verse:
Fm                    C
No hay rosa  que me devuelva el placer
   Gm             D
ni gesto que me permita revivir
A#                    F
las ansias, todo el deseo
     Cm           G
de tocarte, de volar junto a ti
A#             F
No, No puedo reconstruir
              D#         Cm    Gm
lo que el tiempo ha borrado en mí


Chorus:
A#             F
Y si alguna vez te amé
Cm            Gm
y si ya no queda nada
A#             F
y si alguna vez te dí
Cm             Gm
lo que hoy sólo son palabras
A#      F
Déjame recordar
Cm          Gm
lo bueno que fue ayer
A#         F
déjame sentir que aún
   D#       Cm         Gm
llenamos el mundo tú y yo.

Toca esta parte
       Gm             A#           Gm
e) |--------------------------------------------|
b) |-------3--------------6-------------3-------|
g) |---------3--------------7-------------3-----| 
d) |-----------5--------------8-------------5---| 
a) |-------------5------------------------------|
e) |---(3)------------(6)----------(3)----------|

Luego toca:
D C#  Am F  Am F  Am F  Am F

2nd verse:
Gm                    D
No hay rosa  que me devuelva el placer
   Am             E
ni gesto que me permita revivir
C                     G
las ansias, todo el deseo
     Dm           A
de tocarte, de volar junto a ti
C              G
No, No puedo reconstruir
              F          Dm    Am
lo que el tiempo ha borrado en mí


Chorus 2:
C              G
Y si alguna vez te amé
Dm            Am
y si ya no queda nada
C              G
y si alguna vez te dí
Dm             Am
lo que hoy sólo son palabras
C       G
Déjame recordar
Dm          Am
lo bueno que fue ayer
C          G
déjame sentir que aún
   F       Fm         Am
llenamos el mundo tú y yo.

Outro:
      Am         F   Am        F
e) |--------12----------------------|
b) |--13-15-------------------13----|
g) |--------------------14-16-------| Esta parte se
d) |--------------------------------| toca varias
a) |--------------------------------| veces hasta finalizar
e) |--------------------------------| la canción.


Acordes usados:
     Gm  A#  Fm   C  D  F  Cm  G  D# Am  E  Dm A
e) |--3--1----8---8--2--1---3--3--6--0---0--1--0---|
b) |--3--3----9---8--3--1---4--3--8--1---0--3--2---|
g) |--3--3---10---9--2--2---5--4--8--2---1--2--2---| 
d) |--5--3---10--10--0--3---5--5--8--2---2--0--2---|
a) |--5--1----8--10--0--3---3--5--6--0---2--0--0---|  
e) |--3--1----8---8--x--1---3--3--6--0---0--x--0---|


Comentarios, correcciones, Bienvenido :-)
rferrin@
Suggest correction
Give kudos to tab author, rate the tab!
1 2 3 4 5
comments
print report bad tab
guest
Wanna post a correction for this tab? Suggest correction