Oops, an error
Loading. Please wait.

Deja De Lorrar Chiquilla Tab

49 views 1 this week
no commentswrite comment
1 2 3 4 5
3 more votes to show rating
add to favorites
launch autoscroll
font size
0
reset
how to read this tab
guitar tuner
Autoscroll
slow
fast
+/-
esc
set tempo
stop
   
e-------------------------------------------------------------
B-------------------------------------7/9-7-----7--------5----
G-------------------------------------------6/8-------8--4----
D--4-6-7-7-7-7-7-7-6-4-3-6-4-3-4------------------7/9----6----
A-------------------------------------------------------------
E-------------------------------------------------------------


E         C#7     F#m  
Deja de llorar chiquilla
 B7                 E
deja de llorar mi amor
            C#7    F#m
aunque partiré muy lejos
       C       B7             E
algún día volveré por ti mi amor.

  
Riff 1          E
e-----------------------
B------7--------5-------
G--6/8-------8--4-------
D--------7/9----6-------
A-----------------------
E-----------------------

      E         C#7
Te tengo que dejar
   F#m
mi barco zarpará
    B7
me duele el corazón
     E
mas tengo que partir.

    E             C#7  
La vida fue muy cruel
   F#m           
borrando nuestro ayer
   B7
contigo fui feliz
   E           E7 
jamás te olvdaré.

    A           B7 
Te juro que tu amor
      E         C#7
siempre lo llevaré
    F#m       B7 
prendido a mi ser
    E            E7
como una bella flor.

    A           B7
Y cuando tus recuerdos
  E         C#7
vuelen hacia mí
   F#m        B7 
mis ojos llorarán
             E  B7
también por ti. 

E         C#7     F#m  
Deja de llorar chiquilla
 B7                 E
deja de llorar mi amor
            C#7    F#m
aunque partiré muy lejos
       C       B7             E
algún día volveré por ti mi amor.

En estos arreglos van mas slides, pero ya me dio gueva y hay les va

   Riff 2                          Riff 3                       Riff 4 
e--------------------------------|---------------------------|-----------------------------------|
B--------------------------------|---------------------------|-----------------------------------|
G-----------------10-10/12-10----|-------------------8/10----|-----------------------------------|
D--10/12-12-12-13-------------13-|--8/10-10-10-12-13------12-|--10-12-12/13-13-13-12-10-9-12-10--|
A--------------------------------|---------------------------|-----------------------------------|
E--------------------------------|---------------------------|-----------------------------------|

Riff 2      (hablando)
      Deja de llorar chiquilla
Riff 3
      deja de llorar mi amor
Riff 2
      aunque partire muy lejor
Riff 4 
      algun dia volvere por ti mi amor

y se repite desde

Te tengo que dejar.....
Para Rosa Chisty es todo ya sabes lo demas
Suggest correction
Give kudos to tab author, rate the tab!
1 2 3 4 5
comments
print report bad tab
guest
Wanna post a correction for this tab? Suggest correction