Oops, an error
Loading. Please wait.

Dos Cosas Tab

version 1
version 1

Whole song

55 views 1 this week
no commentswrite comment
1 2 3 4 5
3 more votes to show rating
add to favorites
launch autoscroll
font size
0
reset
how to read this tab
guitar tuner
Autoscroll
slow
fast
+/-
esc
set tempo
stop
Help us to improve Ultimate-Guitar.com Take our survey!
×
Intro:

       LAm                                       SOL                  
E||--0----5------0----|--8----7----5----7--|-----------7----5----|
B||---------------------|----------------------|------3--------------|
G||---------------------|----------------------|---------------------|
D||---------------------|----------------------|---------------------|
A||---------------------|----------------------|---------------------|
E||---------------------|----------------------|---------------------|


        FA                                   MI                               
--3----5---------  --|--5----3----1----0-|--1----0-------|--0--------||
----------------3----|----------------------|------------3--|-----------||
---------------------|----------------------|-----------------|-----------||
---------------------|----------------------|-----------------|-----------||
---------------------|----------------------|-----------------|-----------||
---------------------|----------------------|-----------------|-----------||


    Intro:  LAm-SOL -FA -MI 


LAm                        MI         LAm 
Me engañé y te creí arrepentida
                 SOL     FA         MI 
con tu orgullo partido en pedazos,
         LAm      MI          LAm
pero todo, todo fue mentira,
           SOL       FA           MI    MIM7
la venganza te trajo a mis brazos.

REm     SOL                   DO                FA 
Fallaste,   no consigues lo que buscas ,
                       *Sim7            MI 
no te niego que me gustas , 
                      LAm  LAM7
pero no te quiero.
  REm       SOL                           DO    FA 
Dos cosas      que no debes confundir :
                 *Sim7  MI   LAm
el deseo no es amor sincero.


LAm                  MI 
Yo fingí igual que tu
                           LAm
te besé con pasión,
                            MI 
pero no fue el calor
                               LAm
de un encuentro feliz...


Intro:  LAm-SOL -FA -MI 


REm     SOL                   DO                FA 
Fallaste,   no consigues lo que buscas ,
                     *Sim7              MI 
no te niego que me gustas , 
                      LAm  LAM7
pero no te quiero.
  REm       SOL                           DO    FA 
Dos cosas      que no debes confundir :
                 *Sim7  MI   LAm
el deseo no es amor sincero.


Nota: Disonancia

* SIm7:    E A  D G B E 
              x  2   3  2  3  0
Suggest correction
Give kudos to tab author, rate the tab!
1 2 3 4 5
comments
print report bad tab
guest
You may want to rate the tab now too:
select rating
Wanna post a correction for this tab? Suggest correction