Oops, an error
Loading. Please wait.

Dos Cosas Bass

62 views 1 this week
no commentswrite comment
1 2 3 4 5
3 more votes to show rating
add to favorites
×
Save as Personal and add changes to this tab that will be seen only by you. Learn more ›
×
You can save this tab as Personal to edit and correct it or add notes. All changes will be seen only by you. Learn more »
save as personal
new!
launch autoscroll
font size
0
reset
guitar tuner
Autoscroll
slow
fast
+/-
esc
set tempo
stop
G|-----------2-------------------------
D|--------3-------3--------------------
A|------------5-------5------2---------
E|-0-5-0-5-----------------5---0-5------

(El Intro)

"Y por que me dijiste que me querías?"


G|------------------------------------------------
D|------------------------------------------------
A|--0-0-0-----------------------------------------
E|------3-3-3--1-1-1--0-0-0-----------------------

(En esta parte comienza la rola)


G|---------------------------------------------
D|---------------------------------------------
A|0-0-0-0-0-0-0-0-0-----------------------------
E|----------------------3-3-1-1-0-0-0-0---------

"Me engañe, te crei arrepentida...."

Nota: Esto lo lleva en todo esa estrofa


G|------------------------------------------------
D|------------------------------------------------
A|-5-5--------3-3-------------------------------------
E|-----3-3---------1-1--------------------------------


"Fallaste, no  consigues lo que buscas..."


G|-----------------------------------------------------
D|-----------------------------------------------------
A|-5-5--------------------------------------------------
E|------0-0----5-5-5-5----------------------------------

"No lo niego que me gustas, pero no te quiero..."


G|-------------------------------------------------
D|-------------------------------------------------
A|--5-5------2-2------------------------------------
E|------3-3-------1--1------------------------------


"Dos cosas, que no debes confundir...."


G|-----------------------------------------------------
D|------------------------------------------------------
A|-5-5-------0-0-0---------------------------------------
E|------0-0----------------------------------------------

"El deseo no es amor sincero..."


Y se tocan los mismos acordes, total...la rola se repite jeje.


Si, soy bajista de 16 años
y adoro la musica vieja
desde Los Angeles Negros
hasta el Reggaeton.


VIVA LOS TERRICOLAS!
Suggest correction
Give kudos to tab author, rate the tab!
1 2 3 4 5
comments
print report bad tab
guest
Wanna post a correction for this tab? Suggest correction