Oops, an error
Loading. Please wait.

Hoy Te Confieso Tab

version 3
version 3

Whole song

104 views 3 this week
no commentswrite comment
1 2 3 4 5
3 more votes to show rating
add to favorites
launch autoscroll
font size
0
reset
how to read this tab
guitar tuner
×
Best way to learn
"Hoy Te Confieso"
Autoscroll
slow
fast
+/-
esc
set tempo
stop
En la tablaturas el 6==== se debe dejar sonar y el (E7) no es un tono
que lleva la cancion, es un tono que le puedes meter de extra


e|----------------------------------------------------------------------|
B|--------7---7-9-10-10--9-9-7-7--5-5-4-5--5-7-9-9--7-5-5-3-3-2-3-------|
G|--4--6--7---7-9-11-11--9-9-7-7--6-6-5-6--6-7-9-9--7-6-6-4-4-3-4-------|
D|----------------------------------------------------------------------|
A|----------------------------------------------------------------------|
E|----------------------------------------------------------------------|

e|-----------------------------5-----5-7-5---------0--------------------|
B|-----2--3-3--2----------------------------5-7-7--0--------------------|
G|--4-------------4-4--2--4--6====--------------------------------------|
D|----------------------------------------------------------------------|
A|----------------------------------------------------------------------|
E|----------------------------------------------------------------------|


                         A
El tiempo pasa y no es preciso

Buscar la forma de evitarlo
   Bm             F#7
Teniendo tu calor
            Bm
Iran pasando los minutos,
       E
Ire viviendo poco a poco
    A              (E7)
Viviendo de tu amor


e|-----------------------------------|
B|--5--4-5-6--5-6-7--5-7-9-7-10------|
G|-----------------------------------|
D|-----------------------------------|
A|-----------------------------------|
E|-----------------------------------|
                        A
Tocar tu piel sentirte mia,

Llevarte siempre aqui a mi lado
    Bm             F#7
Es forma de sonar,

e|----------------------------------|
B|----7--6-7-8--7-8-9---9-7-5-7-5---|
G|----------------------------------|
D|----------------------------------|
A|----------------------------------|
E|----------------------------------|

           Bm
En los momentos mas felices
         E7
Tener por dentro cicatrices
 A                 A7
Que no debes borrar

       D              E
Yo tambien te juro ahora
               C#m
Que jamas te olvidare,
          F#7
Que nuestro nido
               Bm
La tormenta no podra
         E
Echar a un lado
           A        A7
Sin pensar en el final

     D           E
Pero yo hoy necesito
               C#m
De tu forma de vivir
          F#7
No quiero estar
                      Bm
Tan solitario aqui en la casa
Dm               E
Hoy te confieso vida
A          (E7)
Yo te amo


e|----------------------------------------------------------------------|
B|------2-0-3-2-0---2---------2-0-3-2-0---2-------10-12-14-14-12-10-----|
G|----------------2---------------------2---------------------------11--|
D|---2----------------2-----2---------------2---------------------------|
A|----------------------------------------------------------------------|
E|----------------------------------------------------------------------|

e|----14-12--10-10-9-12-10---10--9-9-7-7-5-4-12---|
B|--------------------------7---------------------|
G|--11--------------------------------------------|
D|------------------------------------------------|
A|------------------------------------------------|
E|------------------------------------------------|

e|-------12-14-12-----------------------|
B|--------12-10-12-14---14-12-----------|
G|--------------------------------------|
D|--------------------------------------|
A|--------------------------------------|
E|--------------------------------------|


e|-----------------------------------|
B|--5--4-5-6--5-6-7--5-7-9-7-10------|
G|-----------------------------------|
D|-----------------------------------|
A|-----------------------------------|
E|-----------------------------------|
                        A
Tocar tu piel sentirte mia,

Llevarte siempre aqui a mi lado
    Bm             F#7
Es forma de sonar,

e|----------------------------------|
B|----7--6-7-8--7-8-9---9-7-5-7-5---|
G|----------------------------------|
D|----------------------------------|
A|----------------------------------|
E|----------------------------------|

           Bm
En los momentos mas felices
         E7
Tener por dentro cicatrices
 A                 A7
Que no debes borrar


       D              E
Yo tambien te juro ahora
               C#m
Que jamas te olvidare,
          F#7
Que nuestro nido
               Bm
La tormenta no podra
         E
Echar a un lado
           A        A7
Sin pensar en el final

     D           E
Pero yo hoy necesito
               C#m
De tu forma de vivir
          F#7
No quiero estar
                      Bm
Tan solitario aqui en la casa
Dm               E
Hoy te confieso vida
A           G           A           G             A
Yo te amo...Tu te amo...Yo te amo...Tu me amas....Yo te amo
Suggest correction
Give kudos to tab author, rate the tab!
1 2 3 4 5
comments
print report bad tab
guest
You may want to rate the tab now too:
select rating
Wanna post a correction for this tab? Suggest correction