Oops, an error
Loading. Please wait.

Llorarás Tab

119 views 3 this week
no commentswrite comment
1 2 3 4 5
3 more votes to show rating
add to favorites
launch autoscroll
font size
0
reset
how to read this tab
guitar tuner
×
Best way to learn
"Llorarás"
Autoscroll
slow
fast
+/-
esc
set tempo
stop
Intro.
        Em        C               B7              Em
1|---------------------------------------------------|
2|--5-7-7s8~-----5-7-7s8~-----5--8-7----7s8-7--4-4s5-|
3|-4------------4------------4--------4--------------|
4|---------------------------------------------------|
5|---------------------------------------------------|
6|---------------------------------------------------|

(parte rápida)                        E7
---7-8-7--5-7-5--------------------------|
-------------8-7-5s-(slide hacia atrás)--|
-----------------------------------------|
-----------------------------------------|
-----------------------------------------|
-----------------------------------------|
    Am         D (*)
Te vas
                          G
y ya veras que no es tan fácil olvidar
Cmaj7        Am/F#
esos momentos que solíamos pasar
B7                  Em            (*)   E7
esos instantes que siempre recordarás

     Am    (*) D  (*)
Te vas
                      G
muy buena suerte te deseo al partir
Cmaj7        Am/F#
le pediré a Dios que te haga muy feliz
         B7         Em           (*)  E7
mas al final estoy seguro llorarás por mi


**Coro**
    Am
Llorarás
    D            G
llorarás cuando te acuerdes de mi
    Cmaj7          Am
sufrirás cuando intentes ser feliz
   D                      G        E7
y al Señor le pedirás volver a mi

     Am
Y verás
     D                 G
y verás que no es tan fácil olvidar
 Cmaj7          Am/F#
olvidar cuando se ha aprendido a amar
       B7           Em             E7
en la forma como te he enseñado yo

break [*]  (mismos acordes del coro)

    Am
Llorarás
    D            G
llorarás cuando te acuerdes de mi
    Cmaj7          Am
sufrirás cuando intentes ser feliz
   D                      G        E7
y al Señor le pedirás volver a mi

     Am
Y verás
     D                 G
y verás que no es tan fácil olvidar
 Cmaj7          Am/F#
olvidar cuando se ha aprendido a amar
       B7           Em
en la forma como te he enseñado yo


      Am
como te he enseñado yo
      Em
como te he enseñado yo
      B7
como te he enseñado yo
                     Em (punteo **)
como te he enseñado yo
    Em         A             Em              A
1|----------------------------------------------
2|--5-4-5-4-5------5-4-5-4-5------5-4-5-4-5-----
3|------------5s6------------3s4------------5s6-
4|----------------------------------------------
5|----------------------------------------------
6|----------------------------------------------

 Em                                        Em9
--------------------------------------------2--|
----5-4-5-4-5--5----------------------------0--|
-----------------4--4s5-4---2s4-2---0s2-0---0--|
--------------------------------------------2--|
--------------------------------------------2--|
--------------------------------------------0--|

En los lugares marcados con (*) van adornos sencillos
y en el 'break' va un solo
( opcionales, depende de cada quien )


       654321
Cmaj7  33200x
Am/F#  202210


Suggest correction
Give kudos to tab author, rate the tab!
1 2 3 4 5
comments
print report bad tab
guest
You may want to rate the tab now too:
select rating
Wanna post a correction for this tab? Suggest correction