Oops, an error
Loading. Please wait.

Papi Dónde Está El Funk Tab

version 2
version 2

Whole song

809 views 1 this week
no commentswrite comment
1 2 3 4 5
3 more votes to show rating
add to favorites
launch autoscroll
font size
0
reset
how to read this tab
guitar tuner
×
Best way to learn
"Papi Dónde Está El Funk"
Autoscroll
slow
fast
+/-
esc
set tempo
stop
Usa efectos de Auto-wah limpios y con distorsión

Intro

|--8h11p8------------8h11p8--------------6*------4---------
|--8------8h11p8-----8------8h11p8-------6*------4---------
|--8-------------10--8-------------------7*------5---------
|-10-----------------9-------------9-----8*----6-----------
|----------------------------------------8*----------------
|--------------------------------------6-----4------4-3----

|----3?-3*----------------------------4--------3---3-------
|----3?-4*----------------------------4--------3---4-------
|----4?-3*----------------------------5--------4---3-------
|--5----5*-------------3h5p3--------6--------5-----5-------
|-------3*----------6--------6---------------------3-------
|---------------6h8---------------4------4-3---------------

|---3h6p3------------3----8h11p8------------8h11p8---------
|---4-----4h6p4------4----8------8h11p8-----8------8h11p8--
|---3-----------3h5--5----8-------------10--8--------------
|---5--------------------10-----------------9-------------9
|----------------------------------------------------------
|----------------------------------------------------------

|---6-x-6-x-6----|     * = Varias veces
|---6-x-6-x-6----|
|---7-x-7-x-7----|
|---8-x-8-x-8----|
|---8-x-8-x-8----|
|---6-x-6-x-6----|

I

  ?Es el funk lo k siento...
|--8h11p8------------8h11p8--------------6*------4---------
|--8------8h11p8-----8------8h11p8-------6*------4---------
|--8-------------10--8-------------------7*------5---------
|-10-----------------9-------------9-----8*----6-----------
|----------------------------------------8*----------------
|--------------------------------------6-----4------4-3----

|----3?-3*----------------------------4--------3---3-------
|----3?-4*----------------------------4--------3---4-------
|----4?-3*----------------------------5--------4---3-------
|--5----5*-------------3h5p3--------6--------5-----5-------
|-------3*----------6--------6---------------------3-------
|---------------6h8---------------4------4-3---------------


|---3h6p3------------3----8h11p8------------8h11p8---------
|---4-----4h6p4------4----8------8h11p8-----8------8h11p8--
|---3-----------3h5--5----8-------------10--8--------------
|---5--------------------10-----------------9-------------9
|----------------------------------------------------------
|----------------------------------------------------------

|---6-x-6-x-6-x-6-6---|
|---6-x-6-x-6-x-6-6---|
|---7-x-7-x-7-x-7-7---|
|---8-x-8-x-8-x-8-8---|
|---8-x-8-x-8-x-8-8---|
|---6-x-6-x-6-x-6-6---|

II

  ?Paso mi mano por su cuerpo...?
|--8-x--*--------------------------|
|--8-x--*--------------------------|
|--8-x--*--------------------------|
|----------------------------------|
|----------------------------------|
|----------------------------------|

III

  ?Yo pienso nena...?
|---------------------------------------|
|-----------------(con distorsión)------|
|---------------------------------------|
|---6--5--8-----------------------------|
|---6--5--8-----------------------------|
|---4--3--6-----------------------------|

IV


|------4----------3--3*-----------------------------------|
|------4----------3--4*-----------------------------------|
|------5----------4--3*-----------------------------------|
|----6----------5----5*-------------3h5p3-----------------|
|--------------------3*----------6--------6---------------|
|--4------4--3---------------6h8--------------------------|

|--4-4-4-3-3-3--3?-3h6p3------------3---------------------|
|--4-4-4-3-3-3--4--4-----4h6p4------4---------------------|
|--5-5-5-4-4-4--3--3-----------3h5--3---------------------|
|--6-6-6-5-5-5--5--5----------------5---------------------|
|--6-6-6-5-5-5--3-----------------------------------------|
|--4-4-4-3-3-3--------------------------------------------|

|---8h11p8------------8h11p8-----------6*-----------------|
|---8------8h11p8-----8------8h11p8----6*-----------------|
|---8-------------10--8----------------7*-----------------|
|--10-----------------9-------------9? 8*-----------------|
|--------------------------------------8*-----------------|
|--------------------------------------6*-----------------|

V

   ?Y así mi guitarra comienza...
|---8*--6*--4-4-4-3-3-3---3*---------------------
|---8*--6*--4-4-4-3-3-3---4*---------------------
|---8*--7*--5-5-5-4-4-4---3*---------------------
|-------8*--6-6-6-5-5-5---5*---------3h5p3-------
|-----------6-6-6-5-5-5---3*------6--------6-----
|-----------4-4-4-3-3-3-------6h8----------------

|----------------3--|
|----------------4--|
|----------------3--|
|----6------5----5--|
|-------------------|
|--4---4--3---3-----|

|---3h6p3------------3----8h11p8------------8h11p8---------
|---4-----4h6p4------4----8------8h11p8-----8------8h11p8--
|---3-----------3h5--5----8-------------10--8--------------
|---5--------------------10-----------------9-------------9
|----------------------------------------------------------
|----------------------------------------------------------

|---6-x-6-x-6--|
|---6-x-6-x-6--|
|---7-x-7-x-7--|
|---8-x-8-x-8--|
|---8-x-8-x-8--|
|---6-x-6-x-6--|

Coro (pendiente)


III

  ?Esto va dirigido??
|---------------------------------------|
|-----------------(con distorsión)------|
|---------------------------------------|
|---6--5--8-----------------------------|
|---6--5--8-----------------------------|
|---4--3--6-----------------------------|

IV


|------4----------3--3*-----------------------------------|
|------4----------3--4*-----------------------------------|
|------5----------4--3*-----------------------------------|
|----6----------5----5*-------------3h5p3-----------------|
|--------------------3*----------6--------6---------------|
|--4------4--3---------------6h8--------------------------|

|--4-4-4-3-3-3--3?-3h6p3------------3---------------------|
|--4-4-4-3-3-3--4--4-----4h6p4------4---------------------|
|--5-5-5-4-4-4--3--3-----------3h5--3---------------------|
|--6-6-6-5-5-5--5--5----------------5---------------------|
|--6-6-6-5-5-5--3-----------------------------------------|
|--4-4-4-3-3-3--------------------------------------------|

|---8h11p8------------8h11p8-----------6*-----------------|
|---8------8h11p8-----8------8h11p8----6*-----------------|
|---8-------------10--8----------------7*-----------------|
|--10-----------------9-------------9? 8*-----------------|
|--------------------------------------8*-----------------|
|--------------------------------------6*-----------------|

Riff Verso

|----------------------------------------------------------
|---------8----8-----------8-9-8-------------8----8--------
|-------8---10---10------8-------8---------8---10---10-----
|--8-10-------------8-10-----------10-8-10-----------------
|----------------------------------------------------------
|----------------------------------------------------------

|---------------------11-8---|
|----------------8-11--------|
|-------8------8-------------|
|--8-10---8h10---------------|    x2
|----------------------------|
|----------------------------|

Riff Coro

|----------------------------------------------------------
|------------------------------------------11-8------------
|-10-8-10-8-10-8-10b-8----10-10-8-10-10-8-------10b-8------
|----------------------10-----------------------------10---
|----------------------------------------------------------
|----------------------------------------------------------


|-------------------------------|
|-------------8-9-8-------------|
|--------8-10-------10-8b-------|    x2
|--10-10------------------10----|
|-------------------------------|
|-------------------------------|


Outro

|----------------------------------------------------------
|----------------------------------------------------------
|-----------------------------8-10-10b--8-10-10b-----------
|--8-8-8---8-8-8-------8-8-8-----------------------8-8-8---
|--8-8-8---8-8-8-------8-8-8-----------------------8-8-8---
|--6-6-6---6-6-6-6-7-8-6-6-6-----------------------6-6-6---

|--11-8-----------------------11-8----8--------------------
|--------11-8-11-8-----------------11---11-8-11-8----8-----
|------------------9------------------------------10---10--
|---------------------8-8-8--------------------------------
|---------------------8-8-8--------------------------------
|---------------------6-6-6--------------------------------

|----------------------------------------------17b-------|
|--------------------------------------------------------|
|--8-10-8----8-------------------------------------------|
|---------10---10-8-10-8----8--------8-8-----------------|
|------------------------10---10-8---8-8-----------------|
|------------------------------------6-6-----------------|

El orden de la canción es el siguiente:

Intro
I
II
III
IV
V
Coro
III
IV
Riff verso
Verso
Coro x2
Riff coro x2
Outro
Suggest correction
Give kudos to tab author, rate the tab!
1 2 3 4 5
comments
print report bad tab
guest
You may want to rate the tab now too:
select rating
Wanna post a correction for this tab? Suggest correction