Oops, an error
Loading. Please wait.

Viviré Tab

13 views 1 this week
no commentswrite comment
1 2 3 4 5
3 more votes to show rating
add to favorites
launch autoscroll
font size
0
reset
how to read this tab
guitar tuner
Autoscroll
slow
fast
+/-
esc
set tempo
stop
Help us to improve Ultimate-Guitar.com Take our survey!
×
en esta cancion solo utilice la cancion que ya abian subido y le
añadi los arreglos para que cepan donde es que lo hacen pero las
notas ya las abian dado, la cual estan bien...

intr. Guitarra #1: |D/F#  G | A | 4 VECES

una guitarra electro acustica hace el rasgueo con las notas de la
intro o tambien puede ser electrica con un sonido natural????
La guitarra #2 hace el siguiente exagrama? escuchenla para saber
el tiempo de cada punto?esta parte la siguen tokando en toda la
estrofa

D-------0-------0----------2----2--4--2--0-----
A-----0---0---0---0--0--0----0-----------------
E---2-------3----------------------------------

Luego la guitarra #3 hace el siguiente arreglo??lo hace solo 2
veces en la intro?? escuchen la kancion para saber donde va
este arreglo, tambien va en varias partes de la kancion al igual
que lo anterior??

e---------------------------------------------------
B--7-----7-----8-----8-----10-----10-----5--7-5--3--
G-----7-----7-----7-----7------7------7-------------

Estrofa1:

D/F#  G    A
Tu eterno amor
D/F# G    A
En mi dolor me alcanzo
D/F#  G  A  D/F#  G  A    D/F#  G - A  2veces
Y tu perdón?  mí pasado olvidó

Guitarra #2:

D-------0-------0----------2----2--4--2--0-----
A-----0---0---0---0--0--0----0-----------------
E---2-------3----------------------------------

Guitarra #3: esta va al mismo tiempo que la otra en esta parte

e---------------------------------------------------
B--7-----7-----8-----8-----10-----10-----5--7-5--3--
G-----7-----7-----7-----7------7------7-------------

Estrofa 2:

D/F#  G    A
Me sorprendió
D/F# G     A
Tanta ternura y compasión
D/F#  G A  D/F# G A          D/F# G  A
Tu corazón, me enamoro me cautivo


Coro:

A/C#   D       G          A/C#
Viviré, solo para adorarte Dios
D          G       A/C#
Serás mi única canción
D     G              A/C# D/F#  G
Completamente dueño de mi corazón.


Intr. Guitarra #1 |D/F#  G | A | 2 VECES

Guitarra #2:

D-------0-------0----------2----2--4--2--0-----
A-----0---0---0---0--0--0----0-----------------
E---2-------3----------------------------------

Guitarra #3: esta va al mismo tiempo que la otra en esta parte

e---------------------------------------------------
B--7-----7-----8-----8-----10-----10-----5--7-5--3--
G-----7-----7-----7-----7------7------7-------------


Estrofa 3:(Mismos tiempos y acordes de la estrofa 1 y2)

Me apasiono, tu amor moldeaste mi interior

Me conmovió, a darte todo lo que soy?

Coro: Viviré? 1 Vez

Intermedio:  G-A-Bm7-A- 4VECES

Coro: Viviré... 2 Veces

Final-D/F#  G - A  2 VECES

En el final termina con el arreglo de la Guitarra #2

Bueno solo me falta el intermedio pero usando esas notas saquen
un arpegio que suene igual y conviértanlo a mas agudo utilizando
solo los puntos que arpegian cuando lo ago me suena kasi igual, o
 tambien le pueden hacer un arreglo improvisado, sean creativos
y veran que les ba sonar kalida ???bueno espero que les sea de
 Bendicion, la kancion esta muy bonita, mi nombre es Josué Levi
Valdez de Ministerios Monte Horeb para servirles, cualquier duda
solo dejen un coment? Dios los Bendiga
Suggest correction
Give kudos to tab author, rate the tab!
1 2 3 4 5
comments
print report bad tab
guest
You may want to rate the tab now too:
select rating
Wanna post a correction for this tab? Suggest correction