Oops, an error
Loading. Please wait.

Aquí No Hay Playa Bass Tab

55 views 1 this week
no commentswrite comment
1 2 3 4 5
3 more votes to show rating
add to favorites
launch autoscroll
font size
0
reset
guitar tuner
×
Best way to learn
"Aquí No Hay Playa"
Autoscroll
slow
fast
+/-
esc
set tempo
stop
Verso
|-------------------------------|
|-------------------------------|
|--------4-4--4-5-5--5-6h7-6h7--|
|-5-5--5------------------------|

Estribillo
|----------------------------|
|----------------------------|
|----4------4--5-5- 5-7-7-7--|
|-5-5--5--5--5---------------|

Puente
|--------------------------|
|--------------------------|
|-------------5-5-6h7-6h7--|
|-5-5-5-0-2-0--------------|

(solo de armónica)
|------------------|
|------------------|
|-3-3---3----------|
|-----3---4-4-4-3--|

Aquí están las partes, escuchando la canción podréis ver las repeticiones
que hace de cada una y cuando entran, también algunas veces el bajista
suele variar un poco o meter pequeños arreglos que podréis identificar
fácilmente si escucháis la canción.

Un saludo!
Suggest correction
Give kudos to tab author, rate the tab!
1 2 3 4 5
comments
print report bad tab
guest
You may want to rate the tab now too:
select rating
Wanna post a correction for this tab? Suggest correction