Oops, an error
Loading. Please wait.
98 views 1 this week
no commentswrite comment
1 2 3 4 5
3 more votes to show rating
add to favorites
launch autoscroll
font size
0
reset
how to read this tab
guitar tuner
×
Best way to learn
"Nerd"
Autoscroll
slow
fast
+/-
esc
set tempo
stop
-------------
--8--6-6-----
-------------  x2
-------------
-------------
-------------

A#-G

F-C5-A#

-------------
-------------
-----0-------
---2---------
-3-----------
-------------

C-G-E-Am

C                G
la estuve pensando
                   E
tiene que haber algo
                 Am
solo no puedo estar

C                   G
quiero tomarte la mano
                     E
no se que tengo de malo
                     Am
hasta cuando voy a esperar

-------------
--8--6-6-----
-------------  x2
-------------
-------------
-------------

-------------
-------------
-----0-------
---2---------
-3-----------
-------------

C-G-E

              Am
yo te quiero ver
C                     G
pero se pasan las horas
                     E
hace frio en la aurora
                     Am
no se que más voy hacer

-------------
--8--6-6-----
-------------  x2
-------------
-------------
-------------
yo no tengo fé
pero resulta que

A#-G
F-C5-A#
                   Gm    F-C5-A#
quien quiere un nerd
                   Gm    F-C5-A#
quien quiere un nerd
                   Gm    F-C5
quien quiere un nerd

-------------
--8--6-6-----
-------------
-------------
-------------
-------------
Suggest correction
Give kudos to tab author, rate the tab!
1 2 3 4 5
comments
print report bad tab
guest
You may want to rate the tab now too:
select rating
Wanna post a correction for this tab? Suggest correction