Oops, an error
Loading. Please wait.

Estoy Harto De Tí Tab

by Thermo
25 views 1 this week
no commentswrite comment
1 2 3 4 5
3 more votes to show rating
add to favorites
launch autoscroll
font size
0
reset
how to read this tab
guitar tuner
×
Best way to learn
"Estoy Harto De Tí"
Autoscroll
slow
fast
+/-
esc
set tempo
stop
esta rola c la kiero dedikr a lupita: estoy harto d kererte,
q no t aburres d star siempre en mi cabeza?
d mirarnos y sentir lo q sentimos sin poder hacer nada
pa cambiarlo, ya no soporto star trist x ti!!!!!!
Intro:
Guitarra 2:
(Acustica)
     D#6    Ab
Eb|---0-----0---|
Bb|---2-----2---|
F#|---1-----2---|
C#|---2-----2---|
G#|---2-----0---|
Eb|-------------|

Guitarra 1:
Eb|---7---7---7---7---7---7-7/9-9-9-9/7--7-7-------------------|
Bb|-5---5---5---5---5---5------------------------7P5--5-5----5-|
F#|------------------------------------------4H-----------4H---|
C#|------------------------------------------------------------|
G#|------------------------------------------------------------|
Eb|------------------------------------------------------------|

     |--- P.M.---|                     |--- P.M.---|
Eb|--------------------------------------------------|
Bb|--5-5-5-5-5-5-5----7-5--5-5-----5---5-5-5-5-5-5-5-|
F#|----------------------------4H--------------------|
C#|--------------------------------------------------|
G#|--------------------------------------------------|
Eb|--------------------------------------------------| ...... X3


Eb|---7---7---7---7---7---7-7/9-9-9-9/7--7-7---------|
Bb|-5---5---5---5---5---5------------------------7-5-|
F#|------------------------------------------4H------|
C#|--------------------------------------------------|
G#|--------------------------------------------------|
Eb|--------------------------------------------------|


Estos son rasgueos de 16 tiempos cada nota

Guitarra 1:
    Gb   Db
Eb|-3----2----|
Bb|-3----3----|
F#|-----------|
c#|-----------|
G#|-----------|
Eb|-----------|

Despues de 2 veces entra la Guitarra 2:

    Gb   Db
Eb|-3----3----|
Bb|-3----2----|
F#|-0----3----|
C#|-0----0----|
G#|-2----0----|
Eb|-3---------|


Letra:

Gb                                        Db
Esto ya lo entendi
                       Gb
Porque no puedo ya callar
                                                          Db
Si una vez te perdi                (y nunca supimos perdonar)
                       Gb
Porque me aferro a rescatar        (nunca pudimos imaginar)
                                                         Db
Algo que yo senti                  (y yo nunca supe valorar)
                   Gb
Y ya no puedo revivir              (todo lo que tu hiciste por mi)
                                                              Db
Tu ya no estas en mi               (y que por mi culpa salio mal)

Quiero olvidarte


Guitarras 1 y 2 con distorsion:

     Gb      Db
Eb|-------------------|
Bb|-------------------|
F#|-----------7-------|
C#|---5-------7-------|
G#|---5-------5--x16--|
Eb|---3-x16-----------|

Gb                                                          Db
Esto ya lo entendi                 (y ya nunca supe que decir)
                           Gb
Por donde tenemos que empezar      (nunca pudimos imaginar)
                                                              Db
Si esto ya lo entendi              (y que por mi culpa salio mal)
                           Gb
Por donde tenemos que empezar
                                                           Db
yo ya no estoy en ti               (y ya nunca supe que decir)
                           Gb
Por donde tenemos que empezar      (nunca pudimos imaginar)
                                                              Db
Si esto ya lo entendi              (y que por mi culpa salio mal)


Gb                                                   Db
Estoy harto de ti                  (de ti!!!)
                         Gb
Por que tuvimos que cambiar


    Gb  Db  Gb
Eb|-3---2---3--|
Bb|-3---3---3--|
F#|------------|
c#|------------|
G#|------------|
Eb|------------|
Suggest correction
Give kudos to tab author, rate the tab!
1 2 3 4 5
comments
print report bad tab
guest
You may want to rate the tab now too:
select rating
Wanna post a correction for this tab? Suggest correction