Oops, an error
Loading. Please wait.

Una Batalla Más Bass

by Thermo
10 views 1 this week
no commentswrite comment
1 2 3 4 5
3 more votes to show rating
add to favorites
launch autoscroll
font size
0
reset
guitar tuner
×
Best way to learn
"Una Batalla Más"
Autoscroll
slow
fast
+/-
esc
set tempo
stop
Escuchen bien como se toca cada parte, yo
solo puse el traste en el que se toca, también
escuchen los tiempos... y nada disfruten de
esta gran rola de Thermo.

Intro:
00:01
G|----------------------------------------------------------------------|
D|--------------4-2-1-1h2------4-5/6-4-2-1------------------------------|
A|-8/2-8/2-2222-----------2222------------****2-****2-**2-***2-***2-**2-|x2
E|----------------------------------------------------------------------|

00:42
 ?Pues este tiempo...?
G|----------------------------|
D|--------------6------4------|
A|-2------7----------------6--|
E|----------------------------|

00:59
 ?... por los errores...?
G|-----------------------------|
D|--------4--------------------|
A|-2------------7---6-4---2----|
E|-----------------------------|

01:17
 ?...es otro día...?
G|--------------------------|
D|-----------1---2-------2--|
A|-0h2---4-----------2------|
E|--------------------------|

01:27
 ?...sin alegrías...?
G|------------------------|
D|---------------1------2-|
A|-2------4---------------|
E|------------------------|

01:43                               01:52
 |-aquí solo marca el tiempo-|
G|---------------------------|      |----------------|
D|---------------------------|      |---------1---2--|
A|--2------4------6------4---| x1   |-2---4----------| x4
E|---------------------------|      |----------------|
Suggest correction
Give kudos to tab author, rate the tab!
1 2 3 4 5
comments
print report bad tab
guest
You may want to rate the tab now too:
select rating
Wanna post a correction for this tab? Suggest correction