Oops, an error
Loading. Please wait.

No Me Gusta Verte Así Tab

41 views 1 this week
no commentswrite comment
1 2 3 4 5
3 more votes to show rating
add to favorites
launch autoscroll
font size
0
reset
how to read this tab
guitar tuner
×
Best way to learn
"No Me Gusta Verte Así"
Autoscroll
slow
fast
+/-
esc
set tempo
stop
D            A       B
No me gusta verte así
          A            G
cuanto quisiera ayudarte
    E                    E                   G.... A
pero me avadiste y date cuenta cuánto perderás
F#              B .      A.. ..G.. A
..Sabes que tan sincero fui
F#            B.        A
...Y siempre dices que:

G          A
eres insegura y triste
     F# .        B ....A
quieres desaparecer
     G.               A        B / A / B
y nunca buscas una solución
G              A              F#           B            A G
sobre mi cabeza ya no suenan las campanas que hace tiempo
        A             B / A / B
recorrían en mi andar
E.                           A
....no dejes que esto quede así
Solo:


e--------------------------------------------------------------
b-15-14-15-15(17)-15-14/15/14-17(19)-17-15-14-15--
g--------------------------------------------------------------
d--------------------------------------------------------------
a--------------------------------------------------------------
e--------------------------------------------------------------

e--------------------.15------------------
b-14/15/14-----15----17(19)-17-15--
g-------------16-------------------------
d-----------------------------------------
a-----------------------------------------
e-----------------------------------------

e-17/15/14--15/14/12--14/12-----12--------------------------------------12
b------------------------------------15-----15/14/15/14/12-----12-.14-15--
g-----------------------------------------------------------------14------
d-------------------------------------------------------------------------
a-------------------------------------------------------------------------
e-------------------------------------------------------------------------

e----------------------------------------------------------
b-15-14-12-------------------------------------------------
g------------14(16)-14-12/14/12-11-9-----------------------
d--------------------------------------------12-11-12-11-9-
a----------------------------------------------------------
e----------------------------------------------------------

e--------------------------------------------------------
b---------12-12----------12-12-12-15(17)-15(17)-15(17)15-
g-14(16)--------14(16)-----------------------------------
d--------------------------------------------------------
a--------------------------------------------------------
e--------------------------------------------------------

Eso es todo.
Arthur.
Suggest correction
Give kudos to tab author, rate the tab!
1 2 3 4 5
comments
print report bad tab
guest
You may want to rate the tab now too:
select rating
Wanna post a correction for this tab? Suggest correction