Oops, an error
Loading. Please wait.

No Me Gusta Verte Así Bass Tab

7 views 3 this week
no commentswrite comment
1 2 3 4 5
3 more votes to show rating
add to favorites
launch autoscroll
font size
0
reset
guitar tuner
Autoscroll
slow
fast
+/-
esc
set tempo
stop
Help us to improve Ultimate-Guitar.com Take our survey!
×
Esta es la canción q la canto a mi amia :D......es facilaza.....

      Nooo..me gusta ..verte ..asi cuanto quisiera   ayudarte
G:/----------------------------------------------------------
D:/----------------------------------------------------------
A:/---5------------------------------------------------------
E:/-----------5----------7-7-7-7-7-7-7-5-5-5-5-5-5-5-3-3-3-3-

    pero me evadiste y .......perderás Sabes ke tan sincero fuí
G:/----------------------------------------------------------
D:/----------------------------------------------------------
A:/---------------------------------------------------2-2-0-0
E:/-0-0-0-0-0-0-0-0-0-0-0-0-0-0-0-0-3-3-3-5-5-5-2-2-2--------

    ...........................y siempre dices que:
G:/-------------------------------------------------
D:/-------------------------------------------------
A:/--------------------------------2-2-2-0-0-0------
E:/---3-3-3-3-5-5-5-5-2-2-2-2-----------------------

    Eres insegura y....desaparecer y nunca buscas una solución.
G:/----------------------------------------------------------
D:/----------------------------------------------------------
A:/-----------------------2-2-0-0----------------------------
E:/--3-3-3-5-5-5-2-2-2-2-----------3-3-3-5-5-5-7-7-7-5-7-7-7-

  Sobre mi cabeza .....campanas que hace ..........en mi andar
G:/----------------------------------------------------------
D:/----------------------------------------------------------
A:/---------------------2-2-0-0------------------------------
E:/-3-3-3-5-5-5-2-2-2-2----------3-3-3-3-5-5-5-5-7-7-7-5-7-7-

   No dejes que esto quede asi
G:/------------------------------------------
D:/------------------------------------------
A:/------------------------------------------
E:/-0-0-0-0-0-0-0-0-0-5-5-5-5-5-5-5-5-5------

    (Esta es la parte del solo de la guitarra)
G:/----------------------------------------------------------
D:/----------------------------------------------------------
A:/----5-5-5-5-5-5-4-4-4-4-4-4-2-2-2-2-2-2-0-0-0-0-0-0-------
E:/----------------------------------------------------------

G:/--------------------------------------------
D:/--------------------------------------------
A:/--------------------------------------------
E:/---3-3-3-3-3-3-2-2-2-2-2-2-3-3-3-3-5-5-5-5--

G:/----------------------------------------------------------
D:/----------------------------------------------------------
A:/----5-5-5-5-5-5-4-4-4-4-4-4-2-2-2-2-2-2-0-0-0-0-0-0-------
E:/----------------------------------------------------------

G:/----------------------------------------------
D:/----------------------------------------------
A:/----------------------------------------------
E:/---3-3-3-3-3-3-3-3-3-3-0-0-0-0-0-0-0-0-0-0----

Luego se repite: ?Saber que tan simcero fui????..?
y acaba en "LA".

Naa mas ya saben cualquier cosa a: loco6voltios@
saludos a toda la gente
Suggest correction
Give kudos to tab author, rate the tab!
1 2 3 4 5
comments
print report bad tab
guest
You may want to rate the tab now too:
select rating
Wanna post a correction for this tab? Suggest correction