Oops, an error
Loading. Please wait.

Como Cuando Éramos Novios Chords

25 views 1 this week
no commentswrite comment
1 2 3 4 5
3 more votes to show rating
add to favorites
launch autoscroll
font size
0
reset
transpose
0
reset
display chords
guitar tuner
Autoscroll
slow
fast
+/-
esc
set tempo
stop
Help us to improve Ultimate-Guitar.com Take our survey!
×
e:-------------------------10-10-10-9-10-12-10-
B:----------7-10-------------------------------
G:------7-9------11-9-7------------------------
D:-7-9-----------------------------------------
A:---------------------------------------------
E:---------------------------------------------

e:-10-10-10-9-10-7-5--10-10-10-9-10-12-10------
B:---------------------------------------------
G:---------------------------------------------
D:---------------------------------------------
A:---------------------------------------------
E:---------------------------------------------

G A Bm  G A D  x 2 D
A                                    Bm
Como me duele entender que esto se puede acabar
G               A       Bm      G    A        D
otras parejas no llegan al final y se juraron amor de verdad.
                    A                Bm
Yo quisiera que tú y yo no perdamos el amor
  G          A             Bm
que noche a noche aumente más y más
 G         A          D
y que por siempre nos tratemos igual (igual)

 G    A          Bm    G   A     D
Como cuando éramos novios, que muchos besos te di
G    A       Bm    G    A      D
como la primera noche que te entregaste a mí
 G       A    Bm    G    A      D
como la ansiosa espera de un hijo que iba a venir
   G    A       Bm     G         D
como los días tan hermosos que tú me haces vivir.

                   A              Bm
Yo quisiera que tú y yo no perdamos el amor
  G        A               Bm
que noche a noche aumente más y más
 G        A           D
y que por siempre nos tratemos igual (igual)

G    A          Bm    G   A     D
Como cuando éramos novios, que muchos besos te di
G    A       Bm    G    A      D
como la primera noche que te entregaste a mí
 G       A    Bm    G    A      D
como la ansiosa espera de un hijo que iba a venir   x2
   G    A       Bm     G         D
como los días tan hermosos que tú me haces vivir.
Suggest correction
Give kudos to tab author, rate the tab!
1 2 3 4 5
comments
print report bad tab
guest
You may want to rate the tab now too:
select rating
Wanna post a correction for this tab? Suggest correction