Oops, an error
Loading. Please wait.

Enamorado De Tí Tab

11 views 1 this week
no commentswrite comment
1 2 3 4 5
3 more votes to show rating
add to favorites
launch autoscroll
font size
0
reset
how to read this tab
guitar tuner
×
Best way to learn
"Enamorado De Tí"
Autoscroll
slow
fast
+/-
esc
set tempo
stop
VA DEDICADA PARA TODAS LAS NIÑAS LINDAS QUE LES GUSTE LOS CHAVOS
GUAPOS COMO YO Y PUES MANDEN CORREOS. ario-virgo91@
**************************************************************

Mi amor quiero desirte que estoy enamorado de ti.

Intro:
          C                Dm            G#m            C
e:1-1-1-1-0-0-0--1-1-1-1-1-0-0---3-3-3-3-1-1-1--3-3-3-3-3-1-1-
B:3-3-3-3-1-1-1--3-3-3-3-3-1-1---5-5-5-5-3-3-3--5-5-5-5-5-3-3-
G:------------------------------------------------------------
D:------------------------------------------------------------
A:------------------------------------------------------------
E:------------------------------------------------------------
          Fm               Dm             G#m           G
e:1-1-1-1-0-0-0--1-1-1-1-1-0-0---3-3-3-3-1-1-1--3-3-3-3-5-3-1-
B:3-3-3-3-1-1-1--3-3-3-3-3-1-1---5-5-5-5-3-3-3--5-5-5-5-6-5-3-
G:------------------------------------------------------------
D:------------------------------------------------------------
A:------------------------------------------------------------
E:------------------------------------------------------------

C                         Am
Todas las noches te sueño uho
 F                 G
y no quiero despertar
C                             Am
estar contigo es la mas bello uho
F                       G
por que me haces suspirar
C                            Am
por donde quiera creo oir tu voz
F                    G
me dices que me amaras.

C                      Am
Enamorado de ti loco y es por tu amor
          Dm                       G
el viento me trae tu voz voz de tu corazón
C                        Am
quisiera llegar al sol y poderlo bajar
          Dm             G
y regartelo a ti como un regalo más
C                      Am
enamorado de ti, iluso y soñador
               Dm                 G
mi ser solo es para ti tambien tuyo es mi amor.

Interlude:
C                Dm                       G#m            C
e:1-1-1-1-0-0-0--1-1-1-1-1-0-0---3-3-3-3-1-1-1--3-3-3-3-3-1-1-
B:3-3-3-3-1-1-1--3-3-3-3-3-1-1---5-5-5-5-3-3-3--5-5-5-5-5-3-3-
G:------------------------------------------------------------
D:------------------------------------------------------------
A:------------------------------------------------------------
E:------------------------------------------------------------
          Fm               Dm             G#m           G
e:1-1-1-1-0-0-0--1-1-1-1-1-0-0---3-3-3-3-1-1-1--3-3-3-3-5-3-1-
B:3-3-3-3-1-1-1--3-3-3-3-3-1-1---5-5-5-5-3-3-3--5-5-5-5-6-5-3-
G:------------------------------------------------------------
D:------------------------------------------------------------
A:------------------------------------------------------------
E:------------------------------------------------------------

C                         Am
Todas las noches te sueño uho
 F                 G
y no quiero despertar
C                             Am
estar contigo es la mas bello uho
F                       G
por que me haces suspirar
C                            Am
por donde quiera creo oir tu voz
F                    G
me dices que me amaras.

C                      Am
Enamorado de ti loco y es por tu amor
          Dm                       G
el viento me trae tu voz voz de tu corazón
C                        Am
quisiera llegar al sol y poderlo bajar
          Dm             G
y regartelo a ti como un regalo más
C                      Am
enamorado de ti, iluso y soñador
               Dm                 G
mi ser solo es para ti tambien tuyo es mi amor.


C             Am  F G
enamorado de ti
  C       Am         F         G
e:8-8h10-----8-8h10-----8-8h10---
B:-------10--------------------8-
G:------------------10-----------

C             Am  F G
enamorado de ti
C        Am          F    G
e:8-8h10-----8-8h10---------
B:-------10--------------10-
G:------------------10------

C             G
enamorado de ti.

JUNIO DEL 2009.
Suggest correction
Give kudos to tab author, rate the tab!
1 2 3 4 5
comments
print report bad tab
guest
You may want to rate the tab now too:
select rating
Wanna post a correction for this tab? Suggest correction