Oops, an error
Loading. Please wait.

No Quiero Verte Más Llorar Tab

29 views 1 this week
no commentswrite comment
1 2 3 4 5
3 more votes to show rating
add to favorites
launch autoscroll
font size
0
reset
how to read this tab
guitar tuner
×
Best way to learn
"No Quiero Verte Más Llorar"
Autoscroll
slow
fast
+/-
esc
set tempo
stop
BUENO PUES LAS DEMAS TRANSCRIPCIONES ESTAN BIEN, PERO CREO QUE FALTA
EL INTRO EN GUITARRA Y PUES AQUI SE LAS DEJO.
*******************************************************************
Intro:
       C               Dm            G                           C
e:------------0-0---------0-0-1-1--3-3-1-1-0-1-0------0-1-0-0---0-
B.----1-1-3-3---------3-3------------------------3--3---------3---
G:0-0-------------2-2---------------------------------------------
D:----------------------------------------------------------------
A:----------------------------------------------------------------
E:----------------------------------------------------------------
       C               Dm            G                             C
e:------------0-0---------0-0-1-1--3-3-1-1-0-1-0--------------------
B.----1-1-3-3---------3-3------------------------3--3-3-3-3-1-1-0-1-
G:0-0-------------2-2-----------------------------------------------
D:------------------------------------------------------------------
A:------------------------------------------------------------------
E:------------------------------------------------------------------

C                    F
Amor mío quiero que sepas
G                      C  C-B
Que en mi está tu corazón
Am                        Dm
Por eso cuando sufres yo sufro
G                          C
Y si eres feliz, feliz yo soy.

C                              F
Si te duele el alma a mi me duele
G                         C   C-B
Si te mueres tú me muero yo
 Am                           Dm
Por eso no quiero que estés triste
 G                            C F-Em-Dm-C
Quiero que en tu pecho haya amor.

C
No quiero verte más llorar
     Dm
No quiero verte más sufrir
    G                                C
Te digo que te quiero y te haré muy feliz.

C
No quiero verte más llorar
     Dm
No quiero verte más sufrir
    G
Te digo que te amo
                     C
y no puedo vivir sin ti.

Interlude:
       C               Dm            G                           C
e:------------0-0---------0-0-1-1--3-3-1-1-0-1-0------0-1-0-0---0-
B.----1-1-3-3---------3-3------------------------3--3---------3---
G:0-0-------------2-2---------------------------------------------
D:----------------------------------------------------------------
A:----------------------------------------------------------------
E:----------------------------------------------------------------
       C               Dm            G                             C
e:------------0-0---------0-0-1-1--3-3-1-1-0-1-0--------------------
B.----1-1-3-3---------3-3------------------------3--3-3-3-3-1-1-0-1-
G:0-0-------------2-2-----------------------------------------------
D:------------------------------------------------------------------
A:------------------------------------------------------------------
E:------------------------------------------------------------------

C                    F
Amor mío quiero que sepas
G                      C   C-B
Que en mi está tu corazón
Am                        Dm
Por eso cuando sufres yo sufro
G                          C
Y si eres feliz, feliz yo soy.

                              F
Si te duele el alma a mi me duele
G                         C   C-B
Si te mueres tú me muero yo
 Am                           Dm
Por eso no quiero que estés triste
 G                            C F-Em-Dm-C
Quiero que en tu pecho haya amor.

C
No quiero verte más llorar
     Dm
No quiero verte más sufrir
    G
Te digo que te quiero
                 C
y te haré muy feliz

C
No quiero verte más llorar
     Dm
No quiero verte más sufrir
    G
Te digo que te amo
                      C-F-C
y no puedo vivir sin ti-i-i.

JUNIO DEL 2009
Suggest correction
Give kudos to tab author, rate the tab!
1 2 3 4 5
comments
print report bad tab
guest
You may want to rate the tab now too:
select rating
Wanna post a correction for this tab? Suggest correction