Oops, an error
Loading. Please wait.

Drácula Tab

version 4
version 4

Whole song

Interactive

32 views 1 this week
no commentswrite comment
1 2 3 4 5
3 more votes to show rating
add to favorites
launch autoscroll
font size
0
reset
how to read this tab
guitar tuner
×
Best way to learn
"Drácula"
Autoscroll
slow
fast
+/-
esc
set tempo
stop
   D       C        A#        A
e|----| e|----| e|------| e|-----|
B|----| B|----| B|------| B|-----|
G|-7--| G|-5--| G|-3----| G|-2---|
D|-7--| D|-5--| D|-3----| D|-2---|
A|-5--| A|-3--| A|-1----| A|-0---|
E|----| E|----| E|------| E|-----|

Riff:


D|----------------------|
A|--8-7-8-10-8-7-8-7-5--|
E|----------------------|    D/C/D D

D|----------------------|
A|--8-7-8-10-8-7-8-7-5--|
E|----------------------|    D/C/D D

D|----------------------|
A|--8-7-8-10-8-7-8-7-5--|
E|----------------------|    A#/C C


D|----------------------|
A|--8-7-8-10-8-7-8-7-5--|
E|----------------------|    D C A#


Palm Mute:
D                                          D C D
Cuenta un relato que en la noche apareció
D                                          D C A#
Un hombre que en vampira su alma convirtió
A#              C
En Transilvania nació
              D        D C D  (RIFF)
Su nombre era Drácula

D                                         D C D
Dicen que por sus venas hubo sangre azul
D                               D C A#
Y que la luz invadía su morada
A#               C                       D      D C D (RIFF)
Pero el engaño llegó y le separó de su amada

A#
Y renunció de su Dios
                C                   C A#
Y el mal se hizo dueño de él
A#
En monstruo le convirtió
   C
Asesino y cruel

D
Hay
        A#
Un alma inmortal
             C           C/A#
Que vaga en la oscuridad

D
Hay
        A#
Un alma inmortal
           C          C/A#
Que busca tu sangre


A#                         C
Aunque te escondas él te encontrará
                A#
Y buscará entre tu mente
                  A
Y tu alma suya será


***Pre-solo***

e|--------------------------|
B|-----------8--------------|
G|--7-7-9-10---10-9-7-------|
D|--------------------10----|
A|--------------------------|
E|--------------------------|  X2

--------------------------------|
----------------5-6-8--8-6-5----|
---------5-7-5---------------5-7|
--8-7-8-------------------------|
--------------------------------|
--------------------------------|

SOLO


D
Hay
        A#
Un alma inmortal
             C           C/A#
Que vaga en la oscuridad

D
Hay
        A#
Un alma inmortal
           C          C/A#
Que busca tu sangre


A#                         C
Aunque te escondas él te encontrará
                A#
Y buscará entre tu mente
                  A
Y tu alma suya será

***Fragmento***

e|---------------------------------------|
B|---------------------------------------|
G|---------------------------------------|
D|----------5-------5-------7-5----------|
A|----5-7-8---5-7-8---5-7-8-----8-7-5----| X9
E|---------------------------------------|


                                         C D
Ahora el vampiro es perseguido por robar

                                       D C A#
En esta noche el corazón de una mortal
            C
Para poder poseer
               D       D C A#
Su alma y su vida

A#
Y en su castillo la luz
         C          C/A#
De nuevo iluminará
A#
El fin de un hombre que hoy
    C                C/A#
Ha encontrado su paz


D
Hay
        A#
Un alma inmortal
             C           C/A#
Que vaga en la oscuridad

D
Hay
        A#
Un alma inmortal
           C          C/A#   (RIFF)
Que busca tu sangre

D|-------------------7/-|
A|--8-7-8-10-8-7-8-7-5/-|
E|----------------------|

Ahi les dejo una transcripcion...
Espero les ayude en algo-.. Saludos desde
Tijuana BC Mexico
Suggest correction
Give kudos to tab author, rate the tab!
1 2 3 4 5
comments
print report bad tab
guest
You may want to rate the tab now too:
select rating
Wanna post a correction for this tab? Suggest correction