Oops, an error
Loading. Please wait.

El Bastón Del Diablo Bass

version 2
version 2

Whole song

Interactive

47 views 1 this week
no commentswrite comment
1 2 3 4 5
3 more votes to show rating
add to favorites
launch autoscroll
font size
0
reset
guitar tuner
backing track
0:00
0:00
×
Best way to learn
"El Bastón Del Diablo"
Autoscroll
slow
fast
+/-
esc
set tempo
stop
NOTA:

Espero y te ayude en algo esta tab.
Si necesitas una tab en especial, escríbeme o visita...

*******************************************
*  *
*******************************************

- Pon atención a las instrucciones que están al final
- CALIFICA SOLO SI LEÍSTE "EL MANUAL"-

G||-------|-------|-------|-------|-------|-------|-------|
D||-------|-------|-------|-------|-------|-------|-------|
A||-------|-------|-------|-------|-------|-------|-------|
E||-------|-------|-------|-------|-------|-------|-------|


  Q    Q    Q    Q       Q    Q    Q    E  E     W
----------------------|-----------------------|-------------------|
----------------------|-----------------------|-------------------|
------------2----0----|-----------------------|-------------------|
----------------------|--2-----------------2--|--2----------------|


  Q    Q    Q    E  E     W                   Q    Q    Q    E  E
-----------------------|-------------------|-----------------------|
-----------------------|-------------------|-----------------------|
-----------------------|-------------------|--5-----------------5--|
--0-----------------0--|--0----------------|-----------------------|


  W                   W                   H        Q    Q
-------------------|-------------------|---------------------|
-------------------|-------------------|---------------------|
--5----------------|--4----------------|--4--------2----0----|
-------------------|-------------------|---------------------|


  Q    Q    Q    E  E     W                   Q    Q    Q    E  E
-----------------------|-------------------|-----------------------|
-----------------------|-------------------|-----------------------|
-----------------------|-------------------|-----------------------|
--2-----------------2--|--2----------------|--0-----------------0--|


  W                   Q    Q    Q    E  E     W
-------------------|-----------------------|-------------------|
-------------------|-----------------------|-------------------|
-------------------|--5-----------------5--|--5----------------|
--0----------------|-----------------------|-------------------|


  W                   H        Q    Q       Q    Q    Q    E  E
-------------------|---------------------|-----------------------|
-------------------|---------------------|-----------------------|
--4----------------|--4--------2----0----|-----------------------|
-------------------|---------------------|--2-----------------2--|


  W                   Q    Q    Q    E  E     W
-------------------|-----------------------|-------------------|
-------------------|-----------------------|-------------------|
-------------------|-----------------------|-------------------|
--2----------------|--0-----------------0--|--0----------------|


  Q    Q    Q    E  E     W                   W
-----------------------|-------------------|-------------------|
-----------------------|-------------------|-------------------|
--5-----------------5--|--5----------------|--4----------------|
-----------------------|-------------------|-------------------|


  W                   W                   Q    Q    Q    Q
-------------------|-------------------|----------------------|
-------------------|-------------------|----------------------|
--4----------------|-------------------|----------------------|
-------------------|--2----------------|-----------------2----|


  W                   Q    Q    Q    Q       Q    Q    E  E  E  E
-------------------|----------------------|------------------------|
-------------------|----------------------|------------------------|
-------------------|----------------------|--5------------------5--|
--0----------------|-----------------0----|------------------------|


  Q    Q    Q    Q       W                   W
----------------------|-------------------|-------------------|
----------------------|-------------------|-------------------|
----------------------|--2----------------|--4----------------|
----------------------|-------------------|-------------------|


  E  E  E  E  E  E  E  E     E  E  E  E  E  E  E  E
--------------------------|--------------------------|
--------------------------|--------------------------|
--------------------------|--------------------------|
--2--2--2--2--2--2--2--2--|--2--2--2--2--2--2--2--2--|


  E  E  E  E  E  E  E  E     E  E  E  E  E  E  E  E
--------------------------|--------------------------|
--------------------------|--------------------------|
--------------------------|--------------------------|
--0--0--0--0--0--0--0--0--|--0--0--0--0--0--0--0--0--|


  E  S S S S E  S S S S E  S S    E  S S S S E  S S S S E  S S
-------------------------------|-------------------------------|
-------------------------------|-------------------------------|
--5--5-5-5-5-5--5-5-5-5-5--5-5-|--5--5-5-5-5-5--5-5-5-5-5--5-5-|
-------------------------------|-------------------------------|


  E  S S S S E  S S S S E  S S    E  S S S S E  S S S S E  S S
-------------------------------|-------------------------------|
-------------------------------|-------------------------------|
--2--2-2-2-2-2--2-2-2-2-2--2-2-|--4--4-4-4-4-4--4-4-4-4-4--4-4-|
-------------------------------|-------------------------------|


  W                   W                   W
-------------------|-------------------|-------------------|
-------------------|-------------------|-------------------|
-------------------|-------------------|-------------------|
--2----------------|--L----------------|--0----------------|


  W                   E  S S S S E  S S S S E  S S
-------------------|-------------------------------|
-------------------|-------------------------------|
-------------------|--5--5-5-5-5-5--5-5-5-5-5--5-5-|
--L----------------|-------------------------------|


  E  S S S S E  S S S S E  S S    E  S S S S E  S S S S E  S S
-------------------------------|-------------------------------|
-------------------------------|-------------------------------|
--5--5-5-5-5-5--5-5-5-5-5--5-5-|--4--4-4-4-4-4--4-4-4-4-4--4-4-|
-------------------------------|-------------------------------|


  W                   E  E  E  E  E  E  E  E
-------------------|--------------------------|
-------------------|--------------------------|
--4----------------|--------------------------|
-------------------|--2--2--2--2--2--2--2--2--|


  E  E  E  E  E  E  E  E     E  E  E  E  E  E  E  E
--------------------------|--------------------------|
--------------------------|--------------------------|
--------------------------|--------------------------|
--2--2--2--2--2--2--2--2--|--0--0--0--0--0--0--0--0--|


  E  E  E  E  E  E  E  E     E  S S S S E  S S S S E  S S
--------------------------|-------------------------------|
--------------------------|-------------------------------|
--------------------------|--5--5-5-5-5-5--5-5-5-5-5--5-5-|
--0--0--0--0--0--0--0--0--|-------------------------------|


  E  S S S S E  S S S S E  S S    E  E  E  E  E  E  E  E
-------------------------------|--------------------------|
-------------------------------|--------------------------|
--5--5-5-5-5-5--5-5-5-5-5--5-5-|--4--4--4--4--4--4--4--4--|
-------------------------------|--------------------------|


  W                   E  S S S S E  S S S S E  S S
-------------------|-------------------------------|
-------------------|-------------------------------|
--4----------------|-------------------------------|
-------------------|--2--2-2-2-2-2--2-2-2-2-2--2-2-|


  E  S S S S E  Q    Q       E  S S S S E  S S S S E  S S
--------------------------|-------------------------------|
--------------------------|-------------------------------|
--------------------------|--5--5-5-5-5-5--5-5-5-5-5--5-5-|
--2--2-2-2-2-2--2----0----|-------------------------------|


  E  S S S S E  S S S S E  S S    E  S S S S E  S S S S E  S S
-------------------------------|-------------------------------|
-------------------------------|-------------------------------|
--5--5-5-5-5-5--5-5-5-5-5--5-5-|--2--2-2-2-2-2--2-2-2-2-2--2-2-|
-------------------------------|-------------------------------|


  E  S S S S E  S S S S E  S S    W
-------------------------------|-------------------|
-------------------------------|-------------------|
--2--2-2-2-2-2--2-2-2-2-2--2-2-|--0----------------|
-------------------------------|-------------------|


  H        Q    Q       E  S S S S E  S S S S E  S S
---------------------|-------------------------------|
---------------------|-------------------------------|
--4--------0---------|-------------------------------|
----------------0----|--2--2-2-2-2-2--2-2-2-2-2--2-2-|


  E  S S S S E  Q    Q       E  S S S S E  S S S S E  S S
--------------------------|-------------------------------|
--------------------------|-------------------------------|
--------------------------|--5--5-5-5-5-5--5-5-5-5-5--5-5-|
--2--2-2-2-2-2--2----0----|-------------------------------|


  E  S S S S E  S S S S E  S S    E  S S S S E  S S S S E  S S
-------------------------------|-------------------------------|
-------------------------------|-------------------------------|
--5--5-5-5-5-5--5-5-5-5-5--5-5-|--2--2-2-2-2-2--2-2-2-2-2--2-2-|
-------------------------------|-------------------------------|


  E  S S S S E  S S S S E  S S    W
-------------------------------|-------------------|
-------------------------------|-------------------|
--2--2-2-2-2-2--2-2-2-2-2--2-2-|--0----------------|
-------------------------------|-------------------|


  W                   W                   E  E  E  E  E  E  E  E
-------------------|-------------------|--------------------------|
-------------------|-------------------|--------------------------|
--4----------------|--4----------------|--------------------------|
-------------------|-------------------|--2--2--2--2--2--2--2--2--|


  E  E  E  E  E  E  E  E     E  E  E  E  E  E  E  E
--------------------------|--------------------------|
--------------------------|--------------------------|
--------------------------|--------------------------|
--2--2--2--2--2--2--2--0--|--0--0--0--0--0--0--0--0--|


  E  E  E  E  E  E  E  E     E  S S S S E  S S S S E  S S
--------------------------|-------------------------------|
--------------------------|-------------------------------|
--------------------------|--5--5-5-5-5-5--5-5-5-5-5--5-5-|
--0--0--0--0--0--0--0--0--|-------------------------------|


  E  S S S S E  S S S S E  S S    E  S S S S E  S S S S E  S S
-------------------------------|-------------------------------|
-------------------------------|-------------------------------|
--5--5-5-5-5-5--5-5-5-5-5--5-5-|--2--2-2-2-2-2--2-2-2-2-2--2-2-|
-------------------------------|-------------------------------|


  E  S S S S E  S S S S E  S S    E  E  E  E  E  E  E  E
-------------------------------|--------------------------|
-------------------------------|--------------------------|
--4--4-4-4-4-4--4-4-4-4-4--4-4-|--------------------------|
-------------------------------|--2--2--2--2--2--2--2--2--|


  E  E  E  E  E  E  E  E     E  E  E  E  E  E  E  E
--------------------------|--------------------------|
--------------------------|--------------------------|
--------------------------|--------------------------|
--2--2--2--2--2--2--2--2--|--0--0--0--0--0--0--0--0--|


  E  E  E  E  E  E  E  E     Q    H        Q
--------------------------|---------------------|
--------------------------|---------------------|
-----------------------5--|-------5--------L----|
--0--0--0--0--0--0--0-----|---------------------|


  H        Q    E  E     H        Q    E  E     H        H
----------------------|----------------------|--------------------|
----------------------|----------------------|--------------------|
--L--------L----L--2--|--L--------L----L--4--|--L--------L--------|
----------------------|----------------------|--------------------|


  E  E  E  E  E  E  E  E     E  E  E  E  E  E  E  E
--------------------------|--------------------------|
--------------------------|--------------------------|
--------------------------|--------------------------|
--2--2--2--2--2--2--2--2--|--2--2--2--2--2--2--2--0--|


  E  E  E  E  E  E  E  E     E  E  E  E  E  E  E  E
--------------------------|--------------------------|
--------------------------|--------------------------|
--------------------------|--------------------------|
--0--0--0--0--0--0--0--0--|--0--0--0--0--0--0--0--0--|


  E  E  E  E  E  E  E  E     E  E  E  E  E  E  E  E
--------------------------|--------------------------|
--------------------------|--------------------------|
--5--5--5--5--5--5--5--5--|--5--5--5--5--5--5--5--5--|
--------------------------|--------------------------|


  E  E  E  E  E  E  E  E     E  E  E  E  E  E  E  E
--------------------------|--------------------------|
--------------------------|--------------------------|
--2--2--2--2--2--2--2--2--|--4--4--4--4--4--4--4--4--|
--------------------------|--------------------------|


  E  E  E  E  E  E  E  E     E  E  E  E  E  E  E  E
--------------------------|--------------------------|
--------------------------|--------------------------|
--------------------------|--------------------------|
--2--2--2--2--2--2--2--2--|--2--2--2--2--2--2--2--0--|


  E  E  E  E  E  E  E  E     E  E  E  E  E  E  E  E
--------------------------|--------------------------|
--------------------------|--------------------------|
--------------------------|-----------------------5--|
--0--0--0--0--0--0--0--0--|--0--0--0--0--0--0--0-----|


  E  E  E  E  E  E  E  E     E  E  E  E  E  E  E  E
--------------------------|--------------------------|
--------------------------|--------------------------|
--5--5--5--5--5--5--5--5--|--5--5--5--5--5--5--5--2--|
--------------------------|--------------------------|


  E  E  E  E  E  E  E  E     E  E  E  E  E  E  E  E
--------------------------|--------------------------|
--------------------------|--------------------------|
--2--2--2--2--2--2--2--4--|--4--4--4--4--4--4--4--5--|
--------------------------|--------------------------|


  H        Q    E  E     H        Q    E  E
----------------------|----------------------|
----------------------|----------------------|
--L--------L----L--7--|--L--------L----L--4--|
----------------------|----------------------|


  E  E  E  E  E  E  E  E     E  E  E  E  E  E  E  E
--------6-----7-----6-----|--------6-----7-----6-----|
-----------------------4--|--L--L--------------------|
--L--L--------------------|-----------------------5--|
--------------------------|--------------------------|


  H        Q    E  E     H        Q    E  E
----------------------|----------------------|
----------------------|----------------------|
--L--------L----L--7--|--L--------L----L--4--|
----------------------|----------------------|


  E  E  E  E  E  E  E  E     E  E  E  E  E  E  E  E
--------------------------|--------------------------|
--------6-----7-----6-----|--------6-----7-----6-----|
--L--L-----------------4--|--L--L-----------------5--|
--------------------------|--------------------------|


  H        Q    E  E     H        Q    E  E
----------------------|----------------------|
----------------------|----------------------|
--L--------L----L--7--|--L--------L----L--4--|
----------------------|----------------------|


  E  E  E  E  E  E  E  E     E  E  E  E  E  E  E  E
--------------------------|--------------------------|
--------6-----7-----6-----|--------6-----7-----6-----|
--L--L-----------------4--|--L--L-----------------5--|
--------------------------|--------------------------|


  H        Q    E  E     H        Q    E  E
----------------------|----------------------|
----------------------|----------------------|
--L--------L----L--7--|--L--------L----L--4--|
----------------------|----------------------|


  E  E  E  E  E  E  E  E     E  E  E  E  E  E  E  E
--------------------------|--------------------------|
--------6-----7-----6-----|--------6-----7-----6-----|
--L--L-----------------4--|--L--L-----------------4--|
--------------------------|--------------------------|


  W                   W                   W
-------------------|-------------------|-------------------|
-------------------|-------------------|-------------------|
--L----------------|--L----------------|-------------------|
-------------------|-------------------|--2----------------|


  W                   W                   W
-------------------|-------------------|-------------------|
-------------------|-------------------|-------------------|
-------------------|-------------------|-------------------|
--L----------------|--2----------------|--L----------------|


  W                   W
-------------------|-------------------|
-------------------|-------------------|
-------------------|-------------------|
--0----------------|--L----------------|


  E  S S S S E  S S S S E  S S    E  S S S S E  S S S S E  S S
-------------------------------|-------------------------------|
-------------------------------|-------------------------------|
--5--5-5-5-5-5--5-5-5-5-5--5-5-|--5--5-5-5-5-5--5-5-5-5-5--5-5-|
-------------------------------|-------------------------------|


  E  S S S S E  S S S S E  S S    W
-------------------------------|-------------------|
-------------------------------|-------------------|
--4--4-4-4-4-4--4-4-4-4-4--4-4-|--4----------------|
-------------------------------|-------------------|


  W                   W                   W
-------------------|-------------------|-------------------|
-------------------|-------------------|-------------------|
-------------------|-------------------|-------------------|
--2----------------|--L----------------|--0----------------|


  W                   E  S S S S E  S S S S E  S S
-------------------|-------------------------------|
-------------------|-------------------------------|
-------------------|--5--5-5-5-5-5--5-5-5-5-5--5-5-|
--L----------------|-------------------------------|


  E  S S S S E  S S S S E  S S    E  S S S S E  S S S S E  S S
-------------------------------|-------------------------------|
-------------------------------|-------------------------------|
--5--5-5-5-5-5--5-5-5-5-5--5-5-|--4--4-4-4-4-4--4-4-4-4-4--4-4-|
-------------------------------|-------------------------------|


  W                   E  S S S S E  S S S S E  S S
-------------------|-------------------------------|
-------------------|-------------------------------|
--4----------------|-------------------------------|
-------------------|--2--2-2-2-2-2--2-2-2-2-2--2-2-|


  E  S S S S E  Q    Q       E  S S S S E  S S S S E  S S
--------------------------|-------------------------------|
--------------------------|-------------------------------|
--------------------------|--5--5-5-5-5-5--5-5-5-5-5--5-5-|
--2--2-2-2-2-2--2----0----|-------------------------------|


  E  S S S S E  S S S S E  S S    E  S S S S E  S S S S E  S S
-------------------------------|-------------------------------|
-------------------------------|-------------------------------|
--5--5-5-5-5-5--5-5-5-5-5--5-5-|--2--2-2-2-2-2--2-2-2-2-2--2-2-|
-------------------------------|-------------------------------|


  E  S S S S E  S S S S E  S S    W
-------------------------------|-------------------|
-------------------------------|-------------------|
--2--2-2-2-2-2--2-2-2-2-2--2-2-|--0----------------|
-------------------------------|-------------------|


  H        Q    Q       E  S S S S E  S S S S E  S S
---------------------|-------------------------------|
---------------------|-------------------------------|
--4--------0---------|-------------------------------|
----------------0----|--2--2-2-2-2-2--2-2-2-2-2--2-2-|


  E  S S S S E  Q    Q       E  S S S S E  S S S S E  S S
--------------------------|-------------------------------|
--------------------------|-------------------------------|
--------------------------|--5--5-5-5-5-5--5-5-5-5-5--5-5-|
--2--2-2-2-2-2--2----0----|-------------------------------|


  E  S S S S E  S S S S E  S S    E  S S S S E  S S S S E  S S
-------------------------------|-------------------------------|
-------------------------------|-------------------------------|
--5--5-5-5-5-5--5-5-5-5-5--5-5-|--2--2-2-2-2-2--2-2-2-2-2--2-2-|
-------------------------------|-------------------------------|


  E  S S S S E  S S S S E  S S    W
-------------------------------|-------------------|
-------------------------------|-------------------|
--2--2-2-2-2-2--2-2-2-2-2--2-2-|--0----------------|
-------------------------------|-------------------|


  W                   E  S S S S E  S S S S E  S S
-------------------|-------------------------------|
-------------------|-------------------------------|
--4----------------|-------------------------------|
-------------------|--2--2-2-2-2-2--2-2-2-2-2--2-2-|


  E  S S S S E  Q    Q       E  S S S S E  S S S S E  S S
--------------------------|-------------------------------|
--------------------------|-------------------------------|
--------------------------|--5--5-5-5-5-5--5-5-5-5-5--5-5-|
--2--2-2-2-2-2--2----0----|-------------------------------|


  E  S S S S E  S S S S E  S S    E  S S S S E  S S S S E  S S
-------------------------------|-------------------------------|
-------------------------------|-------------------------------|
--5--5-5-5-5-5--5-5-5-5-5--5-5-|--2--2-2-2-2-2--2-2-2-2-2--2-2-|
-------------------------------|-------------------------------|


  E  S S S S E  S S S S E  S S    W
-------------------------------|-------------------|
-------------------------------|-------------------|
--2--2-2-2-2-2--2-2-2-2-2--2-2-|--0----------------|
-------------------------------|-------------------|


  E  S S S S E  S S S S E  S S    E  S S S S E  S S S S E  S S
-------------------------------|-------------------------------|
-------------------------------|-------------------------------|
--4--4-4-4-4-4--4-4-4-4-4--4-4-|--4--4-4-4-4-4--4-4-4-4-4--4-4-|
-------------------------------|-------------------------------|


  E  S S S S E  S S S S E  S S    E  S S S S E  S S S S E  S S
-------------------------------|-------------------------------|
-------------------------------|-------------------------------|
--4--4-4-4-4-4--4-4-4-4-4--4-4-|--4--4-4-4-4-4--4-4-4-4-4--4-4-|
-------------------------------|-------------------------------|


  E  E  E  E  E  E  E  E     E  E  E  E  E  E  E  E
--------------------------|--------------------------|
--------------------------|--------------------------|
--------------------------|--------------------------|
--2--2--2--2--2--2--2--2--|--2--2--2--2--2--2--2--2--|


  E  E  E  E  E  E  E  E     E  E  E  E  E  E  E  E
--------------------------|--------------------------|
--------------------------|--------------------------|
--------------------------|--------------------------|
--0--0--0--0--0--0--0--0--|--0--0--0--0--0--0--0--0--|


  E  E  E  E  E  E  E  E     E  E  E  E  E  E  E  E
--------------------------|--------------------------|
--------------------------|--------------------------|
--5--5--5--5--5--5--5--5--|--5--5--5--5--5--5--5--5--|
--------------------------|--------------------------|


  E  E  E  E  E  E  E  E     E  E  E  E  E  E  E  E
--------------------------|--------------------------|
--------------------------|--------------------------|
--2--2--2--2--2--2--2--2--|--4--4--4--4--4--4--4--4--|
--------------------------|--------------------------|


  E  E  E  E  E  E  E  E     E  E  E  E  E  E  E  E
--------------------------|--------------------------|
--------------------------|--------------------------|
--------------------------|--------------------------|
--2--2--2--2--2--2--2--2--|--2--2--2--2--2--2--2--2--|


  E  E  E  E  E  E  E  E     E  E  E  E  E  E  E  E
--------------------------|--------------------------|
--------------------------|--------------------------|
--------------------------|--------------------------|
--0--0--0--0--0--0--0--0--|--0--0--0--0--0--0--0--0--|


  E  E  E  E  E  E  E  E     E  E  E  E  E  E  E  E
--------------------------|--------------------------|
--------------------------|--------------------------|
--5--5--5--5--5--5--5--5--|--5--5--5--5--5--5--5--5--|
--------------------------|--------------------------|


  E  E  E  E  E  E  E  E     E  E  E  E  E  E  E  E
--------------------------|--------------------------|
--------------------------|--------------------------|
--2--2--2--2--2--2--2--2--|--4--4--4--4--4--4--4--4--|
--------------------------|--------------------------|


  E  E  E  E  E  E  E  E     E  E  E  E  E  E  E  E
--------------------------|--------------------------|
--------------------------|--------------------------|
--------------------------|--------------------------|
--2--2--2--2--2--2--2--2--|--2--2--2--2--2--2--2--2--|


  E  E  E  E  E  E  E  E     E  E  E  E  E  E  E  E
--------------------------|--------------------------|
--------------------------|--------------------------|
--------------------------|--------------------------|
--0--0--0--0--0--0--0--0--|--0--0--0--0--0--0--0--0--|


  E  E  E  E  E  E  E  E     E  E  E  E  E  E  E  E
--------------------------|--------------------------|
--------------------------|--------------------------|
--5--5--5--5--5--5--5--5--|--5--5--5--5--5--5--5--5--|
--------------------------|--------------------------|


  E  E  E  E  E  E  E  E     E  E  E  E  E  E  E  E
--------------------------|--------------------------|
--------------------------|--------------------------|
--2--2--2--2--2--2--2--2--|--4--4--4--4--4--4--4--4--|
--------------------------|--------------------------|


  E  E  E  E  E  E  E  E     E  E  E  E  E  E  E  E
--------------------------|--------------------------|
--------------------------|--------------------------|
--------------------------|--------------------------|
--2--2--2--2--2--2--2--2--|--2--2--2--2--2--2--2--2--|


  E  E  E  E  E  E  E  E     E  E  E  E  E  E  E  E
--------------------------|--------------------------|
--------------------------|--------------------------|
--------------------------|--------------------------|
--0--0--0--0--0--0--0--0--|--0--0--0--0--0--0--0--0--|


  E  S S S S E  S S S S E  S S    E  S S S S E  S S S S E  S S
-------------------------------|-------------------------------|
-------------------------------|-------------------------------|
--5--5-5-5-5-5--5-5-5-5-5--5-5-|--5--5-5-5-5-5--5-5-5-5-5--5-5-|
-------------------------------|-------------------------------|


  E  E  E  E  E  E  E  E     E  E  E  E  E  E  E  E
--------------------------|--------------------------|
--------------------------|--------------------------|
--2--2--2--2--2--2--2--2--|--4--4--4--4--4--4--4--4--|
--------------------------|--------------------------|


  W
-------------------|-------------------||
-------------------|-------------------||
-------------------|-------------------||
--2----------------|-------------------||


NOTA:

Espero y te ayude en algo esta tab.
Si necesitas una tab en especial, escríbeme o visita...

*******************************************
*  *
*******************************************

- Pon atención a las instrucciones que están al final
- CALIFICA SOLO SI LEÍSTE "EL MANUAL"-


Duration Legend
---------------
W - whole
H - half
Q - quarter
E - 8th
S - 16th
T - 32nd
X - 64th
. - note dotted
|-n-|  - n-tuplets


Tablature Legend
----------------
L - tied note
x - dead note
g - grace note
(n) - ghost note
> - accentuded note
NH - natural harmonic
AH - artificial harmonic
TH - tapped harmonic
SH - semi harmonic
PH - pitch harmonic
h - hammer on
p - pull off
b - bend
br - bendRelease
pb - preBend
pbr - preBendRelease
brb - bendReleaseBend
n/ - tremolo bar dip
n - tremolo bar dive
-/n - tremolo bar Release up
/n - tremolo bar inverted dip
/n - tremolo bar return
-n - tremolo bar Release down
S - shift slide
s - legato slide
/ -  slide into from below or out of upwards
 -  slide into from above or out of downwards
~ - vibrato
W - wide vibrato
tr - trill
TP - tremolo picking
T - tapping
S - slap
P - pop
< - fade in
^ - brush up
v - brush down
Suggest correction
Give kudos to tab author, rate the tab!
1 2 3 4 5
comments
print report bad tab
guest
You may want to rate the tab now too:
select rating
Wanna post a correction for this tab? Suggest correction