Oops, an error
Loading. Please wait.

El Bastón Del Diablo Tab

version 3
version 3

Whole song

Interactive

38 views 3 this week
no commentswrite comment
1 2 3 4 5
3 more votes to show rating
add to favorites
launch autoscroll
font size
0
reset
how to read this tab
guitar tuner
Autoscroll
slow
fast
+/-
esc
set tempo
stop
Help us to improve Ultimate-Guitar.com Take our survey!
×
bueno, aquì les va este tema que valla que me costo sacarlo, pero estoy
seguro de que està bueno. disfrutenlo


Intro:

e|----------------------------------------------------------------------|
B|-5/7--9-7-5-5/7--7-9-10-12-10-9-5-s-5-7-9-10-9-7-10-9-7-9-10-9-7-9----|
G|----------------------------------------------------------------------|
D|----------------------------------------------------------------------|
A|----------------------------------------------------------------------|
E|------------------------------------------------------------------5-4-|


e|-----------------------------------------------------10-9-10-9-7-9----|
B|-5/7--9-7-5-5/7--7-9-10-12-10-9-5-s-5-7-9-10-9-7-10-9-----------------|
G|----------------------------------------------------------------------|
D|----------------------------------------------------------------------|
A|----------------------------------------------------------------------|
E|------------------------------------------------------------------5-4-|


FA#m
Bajo la luz de un callejòn
      MI
se escucha la voz de un anciano
    RE
contando la historia de un hombre
      DO#
que luchò por su libertad


FA#m
Con su voz ronca y humilde
            MI
contò la historia de un biejo señor
RE
que dominaba a los hombres
    DO#
sentado en un viejo sillòn


Inter:

e|---------------------------------| e|--------------------------------|
B|7-0-9-0-10-0-0-12-0-10-0-9-0-7-0-| B|5-0-7-0-9-0-0-12-0-10-0-9-0-7-0-|
G|---------------------------------| G|--------------------------------|
D|---------------------------------| D|--------------------------------|
A|---------------------------------| A|--------------------------------|
E|---------------------------------| E|--------------------------------|

e|---------------------------------| e|--------------------------------|
B|3-0-5-0-7-0-0-12-0-10-0-9-0-7-0--| B|2-0-3-0-5-0-0-12-0-10-0-9-0-7-0-|
G|---------------------------------| G|--------------------------------|
D|---------------------------------| D|--------------------------------|
A|---------------------------------| A|--------------------------------|
E|---------------------------------| E|--------------------------------|
(Repite 1 vez)


FA#m
Con un bastòn en su mano
        MI
el dictador programa su ley
RE
pero un dìa un hombre
      DO#
se revelò contra su poder


FA#m
Dominado por el miedo
        MI
el dictador a su familia matò
RE
poseido por el odio
DO#
el darle muerte jurò


Coro:

         FA#m
¿Donde estàn? aquellos que sufren
         RE
¿donde estan?
  SIm
sumidos el miedo que incunde el dolor
   LA                  DO#
dejados con la mano de Dios

         FA#m
¿Donde estàn? aquellos que sufren
         RE
¿donde estan?
 SIm
inmersos en un mundo de muerte y maldad
  LA                DO#
intentan huir del poder
              FA#m
de un viejo señor


Inter:

e|---------------------------------| e|--------------------------------|
B|7-0-9-0-10-0-0-12-0-10-0-9-0-7-0-| B|5-0-7-0-9-0-0-12-0-10-0-9-0-7-0-|
G|---------------------------------| G|--------------------------------|
D|---------------------------------| D|--------------------------------|
A|---------------------------------| A|--------------------------------|
E|---------------------------------| E|--------------------------------|

e|---------------------------------| e|--------------------------------|
B|3-0-5-0-7-0-0-12-0-10-0-9-0-7-0--| B|2-0-3-0-5-0-0-12-0-10-0-9-0-7-0-|
G|---------------------------------| G|--------------------------------|
D|---------------------------------| D|--------------------------------|
A|---------------------------------| A|--------------------------------|
E|---------------------------------| E|--------------------------------|


Inter2:................................................................

Solo: FA#m-MI-RE-SIm-DO# /x 2
      RE-MI-FA#m
      RE-MI-DO#
      RE-MI-FA#m
      RE-MI-DO#-FA#m


FA#m
La noche se va cerrando
        MI
y la historia llega a su fìn
   RE
el joven se ha vengado
     DO#
y el viejo ha tenido que huir


FA#m
Ya no quedan palabras
        MI
a su rrelato el anciano acabò
RE
solo queda una pregunta
DO#
y es la que yo me hago hoy


Coro:

         FA#m
¿Donde estàn? aquellos que sufren
         RE
¿donde estan?
  SIm
sumidos el miedo que incunde el dolor
   LA                  DO#
dejados con la mano de Dios

         FA#m
¿Donde estàn? aquellos que sufren
         RE
¿donde estan?
 SIm
inmersos en un mundo de muerte y maldad
  LA                DO#
intentan huir del poder

         FA#m
¿Donde estàn? aquellos que sufren
         RE
¿donde estan?
  SIm
sumidos el miedo que incunde el dolor
   LA                  DO#
dejados con la mano de Diooooooos


outro:

e|--------------------| e|--------------------|
B|-7-9-10-7-12-10-9-7-| B|-5-7-9-5-12-10-9-5--|
G|--------------------| G|--------------------|
D|--------------------| D|--------------------|
A|--------------------| A|--------------------|
E|--------------------| E|--------------------|

e|--------------------| e|---------10-9-7-5---|
B|-3-5-7-3-12-10-9-3--| B|-2-3-5-2------------|
G|--------------------| G|--------------------|
D|--------------------| D|--------------------|
A|--------------------| A|--------------------|
E|--------------------| E|--------------------|
(repite 1 vez)


e|-----------------------------------|
B|7-0-9-0-10-0-0-12-0-10-0-9-0-7-0-7-|
G|-----------------------------------|
D|-----------------------------------|
A|-----------------------------------|
E|-----------------------------------|

e|---------------------------------------|
B|7-0-9-0-10-0-0-12-0-10-0-9-0-7-0-9-10-9|
G|---------------------------------------|
D|---------------------------------------|
A|---------------------------------------|
E|---------------------------------------|

e|-----------------------------------|
B|7-0-9-0-10-0-0-12-0-10-0-9-0-7-0-7-|
G|-----------------------------------|
D|-----------------------------------|
A|-----------------------------------|
E|-----------------------------------|

e|----------------------------------------------|
B|7-0-9-0-10-0-0-12-0-10-0-9-0-7-0-9-10-9--10-7-|
G|----------------------------------------------|
D|----------------------------------------------|
A|----------------------------------------------|
E|----------------------------------------------|


uf!!!, ahì lo tienen, espero que les aya gustado y cualquier duda
es escribanme a mi correo K-rlos_17@ Salu2 pa' los
cauros de la S.S y al Montiel que ojala se consiga el windows que
le pedì. xao.
PD: Disculpen por no haber podido sacar el "inter2", es que mi
oido no da para tanto.
Suggest correction
Give kudos to tab author, rate the tab!
1 2 3 4 5
comments
print report bad tab
guest
You may want to rate the tab now too:
select rating
Wanna post a correction for this tab? Suggest correction