Oops, an error
Loading. Please wait.

La Leyenda Del Holandés Errante Tab

version 1
version 1

Whole song

Interactive

222 views 3 this week
no commentswrite comment
1 2 3 4 5
3 more votes to show rating
add to favorites
launch autoscroll
font size
0
reset
how to read this tab
guitar tuner
Autoscroll
slow
fast
+/-
esc
set tempo
stop
Help us to improve Ultimate-Guitar.com Take our survey!
×
Intro guitarra fondo
e|----------------------------------------------------------------------|
B|----------------------------------------------------------------------|
G|---2---------------------2---------------------5---------7---------2--|
D|---2---------------------2---------------------5---------7---------2--|
A|---0---------------------0---------------------3---------5---------0--|
E|----------------------------------------------------------------------|

                                                        se repite 3 veces
Intro solo
e|--------10---------------------10--------------------10----------------|
B|-10--------13-12-10----10---------13-12-10----10--------13-12-10----13-|
G|--~--12-------------12------12-------------12-----12-------------12----|
D|-----------------------------------------------------------------------|
A|-----------------------------------------------------------------------|
E|-----------------------------------------------------------------------|

e|--10-12-10------------|
B|------------13-12-10--|
G|----------------------|
D|----------------------|
A|----------------------|
E|----------------------|


e|-----------------------------------------------------------------------|
B|-----------------------------------------------------------------------|
G|---2---------------------------------------------2---------------------|
D|---2---------------------------------------------2---------------------|
A|---0---------------------------------------------0---------------------|
E|-----------------------------------------------------------------------|


e|----------10---------------------10--------------------10--------------|
B|--10---------13-12-10----10---------13-12-10----10--------13-12-10-----|
G|---~---12-------------12------12-------------12-----12-------------12--|
D|-----------------------------------------------------------------------|
A|-----------------------------------------------------------------------|
E|-----------------------------------------------------------------------|


e|------------------------------------------------------------------------|
B|------------------------------------------------------------------------|
G|-5---------7---------5---------7---------3---------7-----------------2--|
D|-5---------7---------5---------7---------3---------7---------2---2---2--|
A|-3---------5---------3---------5---------5---------5---------2---2---0--|
E|-------------------------------------------------------------0---0------|


e|-----10-12-10------------10-12-10------------10-12-10-------------------|
B|-13------------13-12-13------------13-12-13------------13-12-13--12--10-|
G|------------------------------------------------------------------------|
D|------------------------------------------------------------------------|
A|------------------------------------------------------------------------|
E|------------------------------------------------------------------------|
Suggest correction
Give kudos to tab author, rate the tab!
1 2 3 4 5
comments
print report bad tab
guest
You may want to rate the tab now too:
select rating
Wanna post a correction for this tab? Suggest correction