Oops, an error
Loading. Please wait.

Nerón Tab

version 3
version 3

Whole song

Interactive

20 views 1 this week
no commentswrite comment
1 2 3 4 5
3 more votes to show rating
add to favorites
launch autoscroll
font size
0
reset
how to read this tab
guitar tuner
Autoscroll
slow
fast
+/-
esc
set tempo
stop
Help us to improve Ultimate-Guitar.com Take our survey!
×
    Bueno debido a que la tablatura anterior no tenia
 la intro de esta canción, decidi sacarla para la guitarra,
 no esta para nada dificil, basta con oirla una sola vez y
podras tocarla muy bien, al principio puede que les suene
un poco cabrona pero no lo es para nada, algunda duda o
sugerencia mandadla a mi e-mail
|----------------------------------|
| /  = slide                       |
| ~ = dejar sonar la nota          |
|----------------------------------|

(00:18)                         (00:22)                  (00:26)
------------------|--------------------------------|-10-----------------------------------------------------
---8/10~~~--------|--------12----10---9---10---12--|----12--10--9-10h12--9-10h12--9-10h12--9-10h12--9-10h12-
------------------|---10---------------------------|--------------------------------------------------------
------------------|--------------------------------|--------------------------------------------------------
------------------|--------------------------------|--------------------------------------------------------
------------------|--------------------------------|--------------------------------------------------------
                                                                        (00:37)
----------------------------------------------------------------------|---------12------------------------
9-10h12--9-10h12--9-10h12--9-10h12--9-10h12--9-10h12--9-10h12--9-10h12|------12--------12-10-9-10-12-13-15
----------------------------------------------------------------------|--10-------------------------------
----------------------------------------------------------------------|-----------------------------------
----------------------------------------------------------------------|-----------------------------------
----------------------------------------------------------------------|-----------------------------------

-------------------------8------------12~~~----------------------|
-13-12-10-8-7-8-10----10-----------------------------------------|
-----------------------------------------------------------------|
-----------------------------------------------------------------|
-----------------------------------------------------------------|
-----------------------------------------------------------------|
Suggest correction
Give kudos to tab author, rate the tab!
1 2 3 4 5
comments
print report bad tab
guest
You may want to rate the tab now too:
select rating
Wanna post a correction for this tab? Suggest correction