Oops, an error
Loading. Please wait.

Nerón Bass

version 1
version 1

Whole song

Interactive

32 views 1 this week
no commentswrite comment
1 2 3 4 5
3 more votes to show rating
add to favorites
launch autoscroll
font size
0
reset
guitar tuner
×
Best way to learn
"Nerón"
Autoscroll
slow
fast
+/-
esc
set tempo
stop
Afinación Standard

La guitarra va sola dos veces

Intro

|-----------------|-----------------|-----------------|
|-----------------|-----------------|-----------------|
|-----------------|-----------------|-----------------|
|-5-5-5-5-5-5-5-5-|-5-5-5-5-5-5-5-5-|-5-5-5-5-5-5-5-5-|

|-----------------|-----------------|-----------------|
|-----------------|-----------------|-----------------|
|-----------------|-5-3-2-3-2-------|-----------------|
|-5-5-5-5-5-5-5-5-|-----------3-5---|-5-5-5-5-5-5-5-5-|

|-----------------|-----------------|-----------------|
|-----------------|-----------------|-----------------|
|-----------------|-----------------|-----------------|
|-5-5-5-5-5-5-5-5-|-5-5-5-5-5-5-5-5-|-5-5-5-5-5-5-5-5-|

|-----------------|-----------------|-----------------|
|-3-2-0-----------|-3-2-0-----------|-2-------2-------|
|-------3-2-------|-------3-2-------|-----------------|
|-----------3-----|-----------3-----|-----------------|

Verso

|-----------------|-----------------|-----------------|
|-----------------|-----------------|-----------------|
|-----------------|-----------------|-----------------|
|-5-5-5-5-5-5-5-5-|-5-5-5-5-5-5-5-5-|-5-5-5-5-5-5-5-5-|


|-----------------|-----------------|-----------------|
|-----------------|-----------------|-----------------|
|-----------------|-----------------|-----------------|
|-5-5-5-5-5-5-5-5-|-1-------3-------|-5-5-5-5-5-5-5-5-|
                                   (Solo la primera vez)
|-----------------|-----------------|-----------------|
|-----------------|-----------------|-----------------|
|-----------------|-----------------|-----------------|
|-5-5-5-5-5-5-5-5-|-1---------------|-1-----------1h3-|

(Solo la segunda)   Verso 2
|-----------------||-----------------|-----------------|
|-----------------||-----------------|-----------------|
|-----------------||-----------------|-----------------|
|-3---------------||-1-1-1-1-1-1-1-1-|-1-1-1-1-1-1-1-1-|


|-----------------|-----------------|-----------------|
|-----------------|-----------------|-----------------|
|-----------------|-----------------|-----------------|
|-1-1-1-1-1-1-1-1-|-1-1-1-1-1-1-1-1-|-5-5-5-5-5-5-5-3-|
|-----------------|-----------------|-----------------|
|-----------------|-----------------|-----------------|
|-----------------|-----------------|-----------------|
|-1-1-1-1-1-1-1-1-|-1-1-1-1-1-1-1-1-|-3-3-3-3-3-3-3-3-|


|-----------------|-----------------|-----------------|
|-----------------|-----------------|-3-2-0-----------|
|-----------------|-----------------|-------3-2-------|
|-3-3-3-3-3-3-3-3-|-0-0-0-0-0-0-0-0-|-----------3-----|

Coro

|-----------------|-----------------|-----------------|
|-----------------|-----------------|-----------------|
|-----------------|-----------------|-3-3-3-3-3-3-3-3-|
|-5-5-5-5-5-5-5-5-|-1-1-1-1-1-1-1-1-|-----------------|


|-----------------|-----------------|-----------------|
|-----------------|-----------------|-----------------|
|-----------------|-----------------|-----------------|
|-3-3-3-3-3-3-3-3-|-5-5-5-5-5-5-5-5-|-1-1-1-1-1-1-1-1-|
                    la primera vez    la segunda
|-----------------|-----------------|-----------------|
|-----------------|-----------------|-----------------|
|-----------------|-----------------|-----------------|
|-3-3-3-3-3-3-3-3-|-3-3-3-3-3-3-1-3-|-3-3-3-3-3-3-3-3-|

Intro
Solo (igual que el verso 1)
Verso 2
Coro
Intro

Termina en
|-----------------|-----------------|-----------------|
|-3?-2--0---------|-----------------|-----------------|
|----------3--2---|-----------------|-----------------|
|-----------------|-3---------------|-5---------------|

pongale chimia
Suggest correction
Give kudos to tab author, rate the tab!
1 2 3 4 5
comments
print report bad tab
guest
You may want to rate the tab now too:
select rating
Wanna post a correction for this tab? Suggest correction