Oops, an error
Loading. Please wait.

Quien Llora Por Tí Tab

version 1
version 1

Whole song

55 views 1 this week
no commentswrite comment
1 2 3 4 5
3 more votes to show rating
add to favorites
launch autoscroll
font size
0
reset
how to read this tab
guitar tuner
×
Best way to learn
"Quien Llora Por Tí"
Autoscroll
slow
fast
+/-
esc
set tempo
stop
E-------------------------------------------------------
A-------------------------------------------------------
D-7--------------7--------------------------------------
G---5--7--10/9-----5--7--10/9--10-7--9-10-11-12--14-12--
B-------------------------------------------------------
E-------------------------------------------------------


E-------------------------------------------------------
A-------------------------------------------------------
D-------------------------------------------------------
G--7--9--7--9--10--9------------------------------------
B----------------------12--10--9--7--9--7--9--10-9-7-9--
E-------------------------------------------------------


E--8--3--5-5-5-5-5pm--8/-3/-5-5-5-5-5pm--8/-5/-3-3-3-3-3
A-10--5--7-7-7-7-7---10/-5/-7-7-7-7-7---10/-7/-5-5-5-5-5
D-10--5--7-----------10/-5/-7-----------10/-7/-5--------
G-------------------------------------------------------
B-------------------------------------------------------
E-------------------------------------------------------


E-7--3--5--5-5-5-5pm--8--3--5--5-5-5-5---8/-5/-3-3-3-3-3
A-------7--7-7-7-7---10--5--7--7-7-7-7--10/-7/-5-5-5-5-5
D-------7------------10--5--7-----------10/-7/-5--------
G------------------------------------------------------
B------------------------------------------------------
E------------------------------------------------------

                donde esta el dolor
E-1-1-1-1-1-----5--8---3--5---8---5--3-3--5-5--7--3----
A-3-3-3-3-3pm---7--10--5--7---10--7--5-5--7-7----------
D-3-------------7--10--5--7---10--7--5-5--7-7----------
G------------------------------------------------------
B------------------------------------------------------
E------------------------------------------------------

  donde duerme el mal
E-5--5-5-5-5--8---3--5--8--5--3-3-3-3-3--1-1-1-1-1-----
A-7--7-7-7-7--10--5--7--10-7--5-5-5-5-5--3-3-3-3-3-----
D-7-----------10--5--7--10-7--5----------3-------------
G------------------------------------------------------
B------------------------------------------------------
E------------------------------------------------------

  (coro)  Quien llora por ti       donde esta el valor
E-3-3--5--5-------5------3--3--1--3--7--3---5-5-5-5-5-5
A-5-5--7--7--7/-7-7--10/-5--5--3--5---------7-7-7-7-7-7
D-5-5--7--7--7/-7-7--10/-5--5--3--5---------7----------
G------------------------------------------------------
B------------------------------------------------------
E------------------------------------------------------


E-8---3--5-5-5-5-5--8---5--3-3-3-3-3---5--5-5-5-5-7-3-
A-10--5--7-7-7-7-7--10--7--5-5-5-5-5---7--7-7-7-7-----
D-10--5--7----------10--7--5-----------7--------------
G-----------------------------------------------------
B-----------------------------------------------------
E-----------------------------------------------------


E-5--5-5-5-5--8---3--5--5-5-5-5---8---5--3-3-3-3--1-1-
A-7--7-7-7-7--10--5--7--7-7-7-7---10--7--5-5-5-5--3-3-
D-7-----------10--5--7------------10--7--5--------3-3-
G-----------------------------------------------------
B-----------------------------------------------------
E-----------------------------------------------------

    temblar de dolor      pero siempre hay un lugar
E-1--5------5--8---3--3--1-1--7--3--5/-1-3--1--3--5---
A-3--7--7/--7--10--5--5--3-3--------7/-3-5--3--5--7---
D-3--7--7/--7--10--5--5--3-3--------7/-3-5--3--5--7---
G-----------------------------------------------------
B-----------------------------------------------------
E-----------------------------------------------------


E-1--3--1--3--5--1--3--1--3--5--1--3--5-5-5-5-5--8----
A-3--5--3--5--7--3--5--3--5--7--3--5--7-7-7-7-7--10---
D-3--5--3--5--7--3--5--3--5--7--3--5--7----------10---
G-----------------------------------------------------
B-----------------------------------------------------
E-----------------------------------------------------


E-3--5--5-5-5-5--8---5--3--3-3-3-3--5-5-5-5-5pm-3-5---
A-5--7--7-7-7-7--10--7--5--5-5-5-5--7-7-7-7-7pm-5-7---
D-5--7-----------10--7--5-----------7--------- -5-7---
G-----------------------------------------------------
B-----------------------------------------------------
E-----------------------------------------------------


E-5-5-5-5-----8---3--5-5-5-5---8--5--3-3-3-3--1-1-1-1-
A-7-7-7-7-pm--10--5--7-7-7-7--10--7--5-5-5-5--3-3-3-3-
D-------------10--5--7--------10--7--5--------3-------
G-----------------------------------------------------
B-----------------------------------------------------
E-----------------------------------------------------

       
         durante el (solo)
E-7--3---5--5-5-5-5-5-----5-5-5-5-5-5-5-----3-3-3-3-3-
A--------7--7-7-7-7-7-pm--7-7-7-7-7-7-7-pm--5-5-5-5-5-
D--------7--------------------------------------------
G-----------------------------------------------------
B-----------------------------------------------------
E-----------------------------------------------------


E--5-5-5-5-5-5-----5-5-5-5-5-----3-3-3-3-3-3-----5--1-
A--7-7-7-7-7-7-pm--7-7-7-7-7-pm--5-5-5-5-5-5-pm--7--3-
D-----------------------------------------------------
G-----------------------------------------------------
B-----------------------------------------------------
E-----------------------------------------------------


se repiten las mismas notas al final. escuchen la
rola  para  acoplarse   
ps.  trabajare en el solo en unos cuantos dias.
TE AMO  Alicia
Suggest correction
Give kudos to tab author, rate the tab!
1 2 3 4 5
comments
print report bad tab
guest
You may want to rate the tab now too:
select rating
Wanna post a correction for this tab? Suggest correction