Oops, an error
Loading. Please wait.

Quien Llora Por Tí Tab

version 2
version 2

Whole song

71 views 1 this week
no commentswrite comment
1 2 3 4 5
3 more votes to show rating
add to favorites
launch autoscroll
font size
0
reset
how to read this tab
guitar tuner
Autoscroll
slow
fast
+/-
esc
set tempo
stop
Help us to improve Ultimate-Guitar.com Take our survey!
×
Intro
e|-----------------------------------------------------------------|
B|-----------------------------------------------------------------|
G|------5-7-10-(9)---------5-7-10-(9)---7-9-(10)-10-10---9-10-(12)-| 
D|-(7)--------------(7)--------------------------------------------| 
A|-----------------------------------------------------------------| 
E|-----------------------------------------------------------------|  
               
                                 X2 
e|---------------------------------|--------------------------|
B|---------------------------------|-12-11-9----(9)----9-(11)-|
G|-12\14-12-10--7-(9)-7h9p7-9h10p9-|---------11-----11--------| 
D|---------------------------------|--------------------------| 
A|---------------------------------|--------------------------| 
E|---------------------------------|--------------------------| 

e|-------|
B|-------|
G|-------| 
D|-10--5-| 
A|-10--5-| 
E|-8---3-|

Riff 1                                                       Primer final
e|-----------------------------------------------------------------|-------------------|
B|-13-11-10----(10)-----10-12-13-12-10----(10)----12-14-14\17?(15)-|-12-115-(17)-17-17-|
G|----------11------11-----------------11--------------------------|-------------------| 
D|-----------------------------------------------------------------|-------------------| 
A|-----------------------------------------------------------------|-------------------| 
E|-----------------------------------------------------------------|-------------------|

e|----------------------------------------------------------|----------------------------|
B|----------------------------------------------------------|----------------------------|
G|----------------5-7----------------5-5--------------------|----------------------------| 
D|-7-xx-7-xx-7-xx-5-7-7-xx-7-xx-7-xx-5-5--------------------|----------------------------| 
A|-7-xx-7-xx-7-xx-3-5-7-xx-7-xx-7-xx-3-7--------------------|----------------------------| 
E|-5-xx-5-xx-5-xx-----5-xx-5-xx-5-xx-----3-xx-3-xx-3-xx-3-3-|-5-xx-5-xx-5-xx-5-xx?--0--3-|

Segundo final
e|--------------------------------------|
B|-13-12-(10)----10-12-13-12-10----(10)-|
G|-----------12-----------------12------| 
D|--------------------------------------| 
A|--------------------------------------| 
E|--------------------------------------|

e|----------------------------|
B|----------------------------|
G|----------------------------| 
D|----------------------------| 
A|----------------------------| 
E|-0-xx-0-xx-0-xx-0-0----7--3-|

Letra
Donde esta el dolor . . . . . . . . . 
e|---------------------------------------------|
B|---------------------------------------------|
G|------5--7-------5--7------------------------| 
D|-(7)--5--7?-(7)--5--7?(5)?(5)?(7)?(7)--------| 
A|-(7)--3--5?-(7)--3--5?(5)?(5)?(7)?(7)--------| 
E|-(5)--------(5)-------(3)?(3)?(5)?(5)---0--3-|

e|---------------------------------------------------------------------------|
B|---------------------------------------------------------------------------|
G|----------------5-7----------------5-5-------------------------------------| 
D|-7-xx-7-xx-7-xx-5-7-7-xx-7-xx-7-xx-5-5-------------------------------------| 
A|-7-xx-7-xx-7-xx-3-5-7-xx-7-xx-7-xx-3-7-------------------------------------| 
E|-5-xx-5-xx-5-xx-----5-xx-5-xx-5-xx-----3-xx-3-xx-3-xx-3-3-0-xx-0-xx-0-xx-00|

Riff 2
Quien llora hoy por ti. . . . . .
e|--------------------------------|
B|--------------------------------|
G|-----------5--7-----------------| 
D|-5---------5--7--7--3--5--------| 
A|-5-0-0-0-0-------7--3--5--------| 
E|-3---------------5--1--3---7--3-|

Coro
Pero siempre ahí un lugar . . . . . . . . .       x3
e|--------------------------------------------------|
B|--------------------------------------------------|
G|--------------------------------------------------| 
D|-7-----------3-----------5----------3-----------5-| 
A|-7-----------3-----------5----------3-----------5-| 
E|-5-----------1-----------3----------1-----------3-|

e|---------------------------|
B|---------------------------|
G|---------------------------| 
D|-7-----------3-----------5-| 
A|-7-----------3-----------5-| 
E|-5-----------1-----------3-|

Ritmo del solo                                                   x2
e|----------------------------------------------------------------|
B|----------------------------------------------------------------|
G|----------------------------------------------------------------| 
D|-7-7-7-7-7--7-7--7-7-7-7-7--7-7--5-5-5-5-5--5-5--7-7-7-7-7--7-7-| 
A|-7-7-7-7-7--7-7--7-7-7-7-7--7-7--5-5-5-5-5--5-5--7-7-7-7-7--7-7-| 
E|-5-5-5-5-5?-5-5--5-5-5-5-5--5-5--3-3-3-3-3--3-3--5-5-5-5-5--5-5-|

e|-------------------------------|
B|-------------------------------|
G|-------------------------------| 
D|-(3)--7-7-7-7-7--7-7?-(3)--(5)-| 
A|-(3)--7-7-7-7-7--7-7?-(3)--(5)-| 
E|-(1)--5-5-5-5-5--5-5?-(i)?-(3)-|

Riff 3
e|----------------------------------------------------|
B|-----12-10-9-7-5--8-7-5--------12-10-9-7-5--8-7-5---|
G|-9-9--------------------8--9-9--------------------8-| 
D|----------------------------------------------------| 
A|----------------------------------------------------| 
E|----------------------------------------------------|

e|----------------------------------------------------------------------|
B|-------15-13-12-10-9--12-11-9---------12-10-9-7-5--8-7-5--------------|
G|-12-12------------------------12--9-9--------------------8------------| 
D|----------------------------------------------------------------------| 
A|----------------------------------------------------------------------| 
E|----------------------------------------------------------------------|

Estructura:
Intro
Riff 1
Letra
Riff 2
Letra
Riff 2
Coro
Riff 1
Ritmo del solo
Letra
Riff 2
Coro
Riff 1
Riff 3 junto con Riff 1
FIN
Suggest correction
Give kudos to tab author, rate the tab!
1 2 3 4 5
comments
print report bad tab
guest
You may want to rate the tab now too:
select rating
Wanna post a correction for this tab? Suggest correction