Oops, an error
Loading. Please wait.

Soñar Con Ella Tab

82 views 1 this week
no commentswrite comment
1 2 3 4 5
3 more votes to show rating
add to favorites
launch autoscroll
font size
0
reset
how to read this tab
guitar tuner
Autoscroll
slow
fast
+/-
esc
set tempo
stop
Help us to improve Ultimate-Guitar.com Take our survey!
×
(Los acordes y quintas que están entre paréntesis solo se tocan
una vez y se dejan sonando hasta el siguiente)


--------------------------------------------------------|
---------------------------------------3----------------|
-2-2-5-4-5-2-2-4-2---2-4-5-4-2-----4-5---5-4---2--------|x4
-2-2-5-4-5-2-2-4-2-------------3h5-----------5----------|
-0-0-3-2-3-0-0-2-0--------------------------------------|
--------------------------------------------------------|

Am                  G
Para olvidar la soledad de mi destino
   G        F                  G
Busqué un lugar dentro de mí, oculto en mi interior

-----------------------------------------------------------
-----------------------------------------------------------
-----------------------------------------------------------
-3-3-5-5---------------------------------------------------
-3-3-5-5---------------------------------------------------
-1-1-3-3---------------------------------------------------

   (A5)                 G
Sentí ahogar mi vida dormida por un sueño
    G     F                      (C5)        (G5)
Que nunca pude alcanzar y que el viento se llevó

 (D5)                (F5)
Allí donde quiera que fuera
          (C5)       (G5)
Sé que ya nunca volverá
 (D5)                 (F5)
Allí lo que el viento lleva
      (C5)       (G5)
Nunca vuelve, no vuelve

  (A5)       (C5)       (G5)
Soñar que la noche no acabó
         (F5)   (G5)   (A5)
Que el dolor nunca existió
   (C5)           (G5)
Volver a soñar con ella

  (A5)        (C5)        (G5)
Sentir que alcancé su corazón
        (F5)      (G5) (A5)
En un lugar, en un interior
  (C5)           (G5)
Y pude volver con ella
   (D5)    (C5)   (A5)
Volver a soñar con ella


--------------------------------------------------------|
---------------------------------------3----------------|
-2-2-5-4-5-2-2-4-2---2-4-5-4-2-----4-5---5-4---2--------|x2
-2-2-5-4-5-2-2-4-2-------------3h5-----------5----------|
-0-0-3-2-3-0-0-2-0--------------------------------------|
--------------------------------------------------------|

--------------------------------------------------10-10b12b
--------------------------------------------10-13----------
----------------------12-10-10p9----9-10-12----------------
-9b10-9----9-10-12---------------12------------------------
--------12---------10--------------------------------------
-----------------------------------------------------------

-10--------
----13-10--  (Ahora viene un picado que no sé sacar)
-----------
-----------
-----------
-----------

-15b17b17b17b17b17b15-15b17b15-----------------------------
-------------------------------17-15b17b15----15-----------
-------------------------------------------17----17-14-----
-----------------------------------------------------------
-----------------------------------------------------------
-----------------------------------------------------------

-------15-17-17b19-19p17h19-17-----------------------------
-15b17-------------------------20-19-17-19-17b19-17--------
-------------------------------------------------------14--
----------------------------------------------------17-----
-----------------------------------------------------------
-----------------------------------------------------------

-----------------------------------------------------------
-----------------------------------------------------------
-14b16-14-14v----------------------------------------------
-----------------------------------------------------------
-----------------------------------------------------------
-----------------------------------------------------------

  (D5)               (F5)
Vivir sin perder su recuerdo
    (C5)          (G5)
Es vivir sin despertar
 (D5)                (F5)
Allí lo que lleva el viento
     (C5)        (G5)
Nunca vuelve, no vuelve

(A5)       (C5)       (G5)
Soñar que la noche no acabó
         (F5)   (G5)   (A5)
Que el dolor nunca existió
   (C5)           (G5)
Volver a soñar con ella

  (A5)        (C5)        (G5)
Sentir que alcancé su corazón
        (F5)      (G5) (A5)
En un lugar, en un interior
  (C5)           (G5)
Y pude volver con ella
   (D5)    (C5)   (A5)
Volver a soñar con ella


--------------------------------------------------------|
---------------------------------------3----------------|
-2-2-5-4-5-2-2-4-2---2-4-5-4-2-----4-5---5-4---2--------|x4
-2-2-5-4-5-2-2-4-2-------------3h5-----------5----------|
-0-0-3-2-3-0-0-2-0--------------------------------------|
--------------------------------------------------------|
Suggest correction
Give kudos to tab author, rate the tab!
1 2 3 4 5
comments
print report bad tab
guest
You may want to rate the tab now too:
select rating
Wanna post a correction for this tab? Suggest correction