Oops, an error
Loading. Please wait.

Tu Misión Tab

16 views 3 this week
no commentswrite comment
1 2 3 4 5
3 more votes to show rating
add to favorites
launch autoscroll
font size
0
reset
how to read this tab
guitar tuner
×
Best way to learn
"Tu Misión"
Autoscroll
slow
fast
+/-
esc
set tempo
stop
Intro x2

|--------------------------------------------------------------|
|--------------------------------------------------------------|
|--------------------------------------------------------------|
|----------------2xxxxxxxxxxxx4-5-4-------2xxxxxxxxxxxx--------|
|-12-10-9-7-9-10-2xxxxxxxxxxxx2-3-2-7-5-4-2xxxxxxxxxxxx--------|
|-10--8-7-5-7--8--------------------5-3-2----------------------|

(0:18)
|--------------------------------------------------------------|
|--------------------------------------------------------------|
|--------------------------------------------------------------|
|------------------------------------------------------7-------|
|-7-777-555-888-101010-888-555--777-555-888-101010-888-5-------|
|--------------------------------------------------------------|
 P.M..................................................


|--------------------------------------------------------------|
|--------------------------------------------------------------|
|--------------------------------------------------------------|
|----------------------------------------------------7-9-------|
|-777-555-888-101010-888-555--777-555-888-101010-888-5-7-------|
|--------------------------------------------------------------|
 P.M................................................

|-----------------|-------------------|-------|---------|------|
|-----------------|-------------------|-------|---------|------|
|-----------------|-------------------|-------|---------|------|
|-12---7---9------|-------------------|-------|---------|------|
|-10---5---7------|----10-9-7-5-4-----|---4---|--7-2-9--|--9---|
|-----------------|-----8-7-5-3-2-----|---2---|--5-0-7--|--7---|


|------------|
|------------|
|------------|
|------------|
|-5-7-9-10---|
|-3-5-7--8---|


 SOLO 1 (1:02)
|----------------------------------------------------------------------|
|----------------------------------------------------------------------|
|-/12-11---------9-10-12-11-9~~----/15~-13~-12~~---10-9----------------|
|------9~~---9-10--------------------------------------10p9~-----------|
|-------------------------------------------------------------8-7------|
|----------------------------------------------------------------9-8~--|


Detras del solo (1:02) (2° guitarra)
|--------------------------------------------------------------|
|--------------------------------------------------------------|
|--------------------------------------------------------------|
|------------------------------------------------------7-------|
|-7-777-555-888-101010-888-555--777-555-888-101010-888-5-------|
|--------------------------------------------------------------|
 P.M..................................................

|--------------------------------------------------------------|
|--------------------------------------------------------------|
|--------------------------------------------------------------|
|--------------------------------------------------------------|
|-777-555-888-101010-888-555--777-555-888-10-9-7-5-4-----------|
|------------------------------------------8-7-5-3-2-----------|
P.M......................................

|-----------------------------|
|-----------------------------|
|-----------------------------|
|-----------------------------|
|--4-------7-2-9---------9----|
|--2-------5-0-7---------7----|


Coro (1:29) (1° guitarra)
|--------------------------------------------------------------|
|--------------------------------------------------------------|
|--------------------------------------------------------------|
|----------9--7--5---5-7-9--7--5---5--9--7--5---5--7--9--7--5--|
|-5-7-9-10-7--5--3---3-5-7--5--3---3--7--5--3---3--5--7--5--3--|
|-3-5-7--8-----------------------------------------------------|


Acompañamiento detras del coro (1:29) (2° guitarra)
|---------------------------------------------------------------------|
|---------------------------------------------------------------------|
|------10-12-13-12-10---10-12-13--------10-12-13-12-10-10-12-13-------|
|-10-12-------------------------12-10-10-----------------------12-10--|
|---------------------------------------------------------------------|
|---------------------------------------------------------------------|


(1:58)
|--------------------------------------------------------------|
|--------------------------------------------------------------|
|--------------------------------------------------------------|
|----------------2xxxxxxxxxxxx4-5-4-------2xxxxxxxxxxxx--------|
|-12-10-9-7-9-10-2xxxxxxxxxxxx2-3-2-7-5-4-2xxxxxxxxxxxx--------|
|-10--8-7-5-7--8--------------------5-3-2----------------------|


(2:05)
|--------------------------------------------------------------|
|--------------------------------------------------------------|
|--------------------------------------------------------------|
|------------------------------------------------------7-------|
|-7-777-555-888-101010-888-555--777-555-888-101010-888-5-------|
|--------------------------------------------------------------|
 P.M..................................................

|--------------------------------------------------------------|
|--------------------------------------------------------------|
|--------------------------------------------------------------|
|--------------------------------------------------------------|
|-777-555-888-101010-888-555--777-555-888-10-9-7-5-4-----------|
|------------------------------------------8-7-5-3-2-----------|
 P.M.....................................

Solo 2 (2:05)
|--------------------------------------------------------------|
|--------------------------------------------------------------|
|-/9~~--\/4-5-4~~------------------------6-7/9~~-/6-5----------|
|-----------------5/7-6----------6-7-9-10------------7-6-------|
|----------------------8-7~~--5/8-----------------------8-7----|
|--------------------------------------------------------------|

(2:23)
|--------------------------------------------------------------|
|--------------------------------------------------------------|
|--------------------------------------------------------------|
|--------------------------------------------------------------|
|-4-4~~--7-2-9~~-----------------------------------------------|
|-2------5-0-7~~---7----7-7~~----------------------------------|


Coro (2:33)
Acompañamiento detras del coro (2:23)

(3:01)
|--------------------------------------------------------------|
|--------------------------------------------------------------|
|--------------------------------------------------------------|
|----------------2xxxxxxxxxxxx4-5-4-------2--------------------|
|-12-10-9-7-9-10-2xxxxxxxxxxxx2-3-2-7-5-4-2--------------------|
|-10--8-7-5-7--8--------------------5-3-2----------------------|

Solo de teclado arreglado para guitarra (3:09)
|--------------------------------------------------------------|
|--------------------------------------------------------------|
|-17-~-16~-14~-13~----------------16---------------------------|
|------------------15-14~----18/19-----------------------------|
|--------------------------------------------------------------|
|--------------------------------------------------------------|

(3:23)
Riff 1
|--------|------------|
|--------|------------|x4
|--------|------------|con una leve variacion de tiempo
|-2xxxx2-|--4-5-4-2-0-|en la 2° y 4° vez
|-2xxxx2-|--2-3-2-2-0-|(guitara 1 y 2)
|--------|------------|

Riff 2
|--------|------------|
|--------|------------|x2
|--------|------------|leve varacion de tiempo
|--------|------------|en la 2° vez
|-4xxxx4-|--6-7-6-4-0-|(guitarra 1 y 2)
|-3xxxx2-|--4-5-4-2-0-|

Riff 3
|--------|-----------------------------|
|--------|-----------------------------|
|--------|-----------------------------|(guitarra 1 y 2)
|--------|-----------------------------|
|-9xxxx9-|--11-12-11-9-7----9xxxx9--11-|
|-7xxxx7-|---9-10--9-7-5----7xxxx7---9-|


Coro (3:51) (1° guitarra)
Acompañamiento detras del coro (3:51) (2° guitarra)

(4:20)
|-----------------|
|-----------------|
|-----------------|(guitarra 1 y 2)
|-----------------|
|-12-10-9-7-9-10--|
|-10--8-7-5-7--8--|


Final (4:22) (guitarra 1 y 2)
Riff 1
|--------|------------|x6
|--------|------------|con variaciones en la 2°, 4° y 6° vez,
|--------|------------|en la 7° se repite el Riff 1 5 veces mas
|-2xxxx2-|--4-5-4-2-0-|la quinta vez va mas alrgado, enseguida se
|-2xxxx2-|--2-3-2-2-0-|repite 3 veces mas todo el pedazo completo,
|--------|------------|a la tercera se desvanece.


Si tienes alguna duda escucha la canción original, para cualquier sugerencia
escribeme a la direccion que aparece arriva.
Saludos desde Colima México a todos los amantes del buen Heavy Metal.


Celta.
Suggest correction
Give kudos to tab author, rate the tab!
1 2 3 4 5
comments
print report bad tab
guest
You may want to rate the tab now too:
select rating
Wanna post a correction for this tab? Suggest correction