Oops, an error
Loading. Please wait.

Contrabando Y Traición Bass

971 views 6 this week
1 commentread comment
1 2 3 4 5
3 more votes to show rating
add to favorites
×
Save as Personal and add changes to this tab that will be seen only by you. Learn more ›
×
You can save this tab as Personal to edit and correct it or add notes. All changes will be seen only by you. Learn more »
save as personal
new!
launch autoscroll
font size
0
reset
guitar tuner
Autoscroll
slow
fast
+/-
esc
set tempo
stop
Colavoracion: Manuel de Jesús Guel M. 


Espero que saquen bien esta rola nomas es de ponerse a escuchar. 


Salieron de san Isidro...............
G-------------------5h75h7--------------------------
D--------3--5-5-5-5--------5-5---------3-4-5-5-5-5--
A--3-3-3-----5-5-5----------5-5-4-3-3-3-----5-5-5-5-
E---3-3----------------------------3-3--------------


        y Camelia la texana
G-----------5h75h7-----------------------5-----------
D-5-5-5-5-5--------5--7-8-10--7--5--2---3-5----------
A--5-5-5-5---------------------------3-3---5-3-3-3-3-
E-------------------------------------3-------3-3-3--

     los paro la emigración......
G--------------------5h75h7----------------------------
D-------3-4-5-5-5-5-5------5--7-8-10--7--5--2-3-5-5-5--
A--3-3-3-----5-5-5-5-------------------------3---5-5-5-
E-3-3-3------------------------------------------------


      una hembra de corazón              una hembra si quiere a un hombre... 
G------------5h75h7------------------------------------------------5--------
D-5-5-5-5-5-5------5--7-8-10--7--5--2--3--5-----------3-3-3-3-3-5-7-7-5---3-
A--5-5-5-5-5--------------------------3-----5-3-3-3-5--3-3-3-3---------3-3--
E----------------------------------------------3-3----------------------3---


         la traición y el contrabando.......
G---------------------------------------5h75h7---------------------------5-----------
D-5-5-5-------3-4-5-5-5-5-5-5-----5-5-5-------5--7-8-10--7--5--2----3-5-7-7-5--------
A--5-5-5-3-3-3-----5-5-5-5-5-5-7-8-5-5---------------------------3-3---------7-3-3-3-
E---------3-3-----------------------------------------------------3-------------3-3-3


     a los angeles llegaron................
G----------------------------------------------------5h75h7---------------------------
D----3-4-5-5-5-5-5-3---------3-4-5-5-5-5-5-5-5-5-5-5-------5--7-8-10--7--5--2--3--5---
A-3-3-----5-5-5-5---7-5-3-3-3-----5-5-5-5-5-5-5-5-5---------------------------3-----5-
E--3---------------------3-3----------------------------------------------------------

G--------------------5h75h7----------------------------
D-------3-4-5-5-5-5-5------5--7-8-10--7--5--2-3-5-5-5--
A--3-3-3-----5-5-5-5-------------------------3---5-5-5-
E-3-3-3------------------------------------------------

Bueno lo demas es casi lo mismo nomas es de que se pongana escuchar bien para 
asver que es lo que se repite.

Dudas o comentarios a msn iron_maiden234@
Suggest correction
Give kudos to tab author, rate the tab!
1 2 3 4 5
comments
print report bad tab
1 comment total.
0 reply
zkrac_19 10 Mar 07, 2017 06:53 PM

una pregunta soy nuevo en el bajo y me encanta la canción pero no la tenéis para guitar pro ?

guest
Wanna post a correction for this tab? Suggest correction