Oops, an error
Loading. Please wait.

Directo Al Corazón Tab

67 views 1 this week
no commentswrite comment
1 2 3 4 5
3 more votes to show rating
add to favorites
launch autoscroll
font size
0
reset
how to read this tab
guitar tuner
Autoscroll
slow
fast
+/-
esc
set tempo
stop
Help us to improve Ultimate-Guitar.com Take our survey!
×
Parte del principio en guitarra...

e--5--5--3--3--1--1--0--0--------|
B--------------------------1--3--|
G--------------------------------|
D--------------------------------|
A--------------------------------|
E--------------------------------|

e--3--3--1--1--0--0--------------|
B--------------------3--3--0--1--|
G--------------------------------|
D--------------------------------|
A--------------------------------|
E--------------------------------|

e--------------------------------|
B--1-3s6-6--6--5--5--3--1-----0--|
G--------------------------2-----|
D--------------------------------|
A--------------------------------|
E--------------------------------|

e--------------------------------|
B--------------------------------|
G--2-4-5-5---2-4-5-5--4h5--4--2--|
D--------------------------------|
A--------------------------------|
E--------------------------------|
Suggest correction
Give kudos to tab author, rate the tab!
1 2 3 4 5
comments
print report bad tab
guest
You may want to rate the tab now too:
select rating
Wanna post a correction for this tab? Suggest correction