Oops, an error
Loading. Please wait.

Golpes En El Corazón Tab

version 2
version 2

Whole song

73 views 1 this week
no commentswrite comment
1 2 3 4 5
3 more votes to show rating
add to favorites
launch autoscroll
font size
0
reset
how to read this tab
guitar tuner
Autoscroll
slow
fast
+/-
esc
set tempo
stop
Help us to improve Ultimate-Guitar.com Take our survey!
×
INTRO:

  D            Bm       G            A7
e --------------------------------------------
b --------------------------------------------
g --------------6/4-4----4-4-4-4---4--4/7-6-6-- X2
d 7-7-7-7--4-7-------------------5------------
E --------------------------------------------

  D        Bm            G           A7
e --------------------------------------------
b --------------------------------------------
g 7-9-11---14-12-11-11---12-12-12-12-11-9-11-9 X2
d --------------------------------------------
E --------------------------------------------

D                Bm
Yo te regalaba todo
G                 A7
todo lo que me pedias
 D                Bm
sin embargo me reclamas
G                   A7
y te daba hasta mi vida

      D              Bm
Pero tu, que me has dado
 G                   A7
falsas promesas de amor
      D              Bm
pero tu, que me has dado
 G               A7
golpes en el corazon

D              Bm
Yo te regalaba todo
 G                 A7
hoy renimos y te olvidas
 D
sali mal con mis amigos
 G                   A7
porque tu no los querias

      D              Bm
Pero tu, que me has dado
 G                A7
todo lo perdi por ti
      D              Bm
pero tu, que me has dado
 G                   A7
solo me has hecho sufrir

 D                Bm
Para sanar las heridas
 G                  D
voy a buscar otro amor
 G          A7      D    Bm
casi arruinaste mi vida
 G        A7       D
golpeando mi corazon

  D            Bm       G            A7
e --------------------------------------------
b --------------------------------------------
g --------------6/4-4----4-4-4-4---4--4/7-6-6-- X1
d 7-7-7-7--4-7-------------------5------------
E --------------------------------------------

  D        Bm            G           A7
e --------------------------------------------
b --------------------------------------------
g 7-9-11---14-12-11-11---12-12-12-12-11-9-11-9 X2
d --------------------------------------------
E --------------------------------------------

D               Bm
Yo te regalaba todo
 G                 A7
con mi madre discutia
 D                  Bm
me queria abrir los ojos
 G               A7
perdoname madre mia

      D              Bm
Pero tu, que me has dado
 G                   A7
falsas promesas de amor
      D              Bm
pero tu, que me has dado
 G                 A7
golpes en el corazon

D                Bm
Para sanar las heridas
 G                  D
voy a buscar otro amor
 G          A7      D    Bm
casi arruinaste mi vida
 G          A7        D
golpeando mi corazon


      D              Bm
Pero tu, que me has dado
 G                   A7
falsas promesas de amor
      D              Bm
pero tu, que me has dado
 G                 A7
golpes en el corazon

      D              Bm
Pero tu, que me has dado
 G                   A7
falsas promesas de amor
      D              Bm
pero tu, que me has dado
 G                 A7
golpes en el corazon??????


Pues ahí esta, es muy buena cancion,
espero y sea de su agrado esta transcripcion.
Dudas? contactenme: stinf_rokes@  :?DzL??
Suggest correction
Give kudos to tab author, rate the tab!
1 2 3 4 5
comments
print report bad tab
guest
You may want to rate the tab now too:
select rating
Wanna post a correction for this tab? Suggest correction