Oops, an error
Loading. Please wait.

Golpes En El Corazón Tab

version 3
version 3

Whole song

115 views 1 this week
no commentswrite comment
1 2 3 4 5
3 more votes to show rating
add to favorites
launch autoscroll
font size
0
reset
how to read this tab
guitar tuner
×
Best way to learn
"Golpes En El Corazón"
Autoscroll
slow
fast
+/-
esc
set tempo
stop
e--333-0-3-5s7-7-5---777--7-10-10-8
b-----------------------7----------
G----------------------------------
D----------------------------------
A----------------------------------
E----------------------------------
____________________________________
e--333-0-3-5s7-7-5---777--7-10-10-8
b-----------------------7----------
G----------------------------------
D----------------------------------
A----------------------------------
E----------------------------------

(pero tu)

e-3-5-7-8s10-88-7-8-8-8-8-7-7s8-7-5
b----------------------------------
G----------------------------------
D----------------------------------
A----------------------------------
E----------------------------------

e-3-5-7-8s10-88-7-8-8-8-8-7-7s8-7-5
b----------------------------------
G----------------------------------
D----------------------------------
A----------------------------------
E----------------------------------


G            Em
Yo te regalaba todo
C              D7
todo lo que me pedias
 G                Em
sin embargo me reclamas
C                D7
y te daba hasta mi vida

      G              Em
Pero tu, que me has dado
 C                 D7
falsas promesas de amor
      G              Em
pero tu, que me has dado
 C              D7
golpes en el corazon

G              Em
Yo te regalaba todo
 C                D7
hoy renimos y te olvidas
 G
sali mal con mis amigos
 C                D7
porque tu no los querias

      G              Em
Pero tu, que me has dado
 C               D7
todo lo perdi por ti
      G              Em
pero tu, que me has dado
 C                  D7
solo me has hecho sufrir

 G                Em
Para sanar las heridas
 C                G
voy a buscar otro amor
 C         D7          G    Em
casi arruinaste mi vida
 C         D7        G
golpeando mi corazon

G               Em
Yo te regalaba todo
 C               D7
con mi madre discutia
 G                  Em
me queria abrir los ojos
 C             D7
perdoname madre mia

Espero que les guste !!!!!
Suggest correction
Give kudos to tab author, rate the tab!
1 2 3 4 5
comments
print report bad tab
guest
You may want to rate the tab now too:
select rating
Wanna post a correction for this tab? Suggest correction