Oops, an error
Loading. Please wait.

Prisión De Amor Tab

72 views 1 this week
no commentswrite comment
1 2 3 4 5
3 more votes to show rating
add to favorites
×
Save as Personal and add changes to this tab that will be seen only by you. Learn more ›
×
You can save this tab as Personal to edit and correct it or add notes. All changes will be seen only by you. Learn more »
save as personal
new!
launch autoscroll
font size
0
reset
how to read this tab
guitar tuner
Autoscroll
slow
fast
+/-
esc
set tempo
stop
Aquí esta la versión mejorada de esta rola.
§aluÐø§ aL G®upô 1.Ð Mat. de la P®ep. Láza®ø ©á®dena§.

       Intro: G#, F7, A#m, D#7, G#, F7, A#m, D#7, G#

6-----------------------------------------------------------------------
5-----------------------------------------------------------------------
4-----------------------------------------------------------------------
3---------10---------------8------------------10------------------------
2--------9----------------8-9-9-9-9----------9---------11-11------------
1-8-11-8-----9-9-9---5-9-5-------------8-11-8----9-9-9-------8-9-9-8-11-

6---------
5---------
4---------
3---------
2---11-9--
1-8-------

G#   F7              A#m            D#7
Mi amor no es pasajero veras
            G#             F7
que todo te lo voy a entregar
            A#m
y nada yo te voy a ocultar
           D#7
porque te quiero en verdad,
    G#
lo juro

  F7           A#m          D#7
Regálame tus besos de miel
            G#            F7
imprégname tu aroma en la piel
            A#m
y hazme que me sienta sonar
       D#7              G#    G#7
con esa forma de amar, carino

       C#            D#7
Esta entrega sera diferente
       G#             F7
ser el uno del otro por siempre
      A#m
no como esos que dan
       D#7
y en seguida se van
      G#              G#7
y que se hacen llorar, llorar

     C#              D#7
A nosotros nos sobran motivos
       G#               F7
es por eso que estamos cautivos
   A#m
en esta prisión
       D#7            G#
donde hay solo amor, cariño


Intro: G#, F7, A#m, D#7, G#, F7, A#m, D#7, G#

6-----------------------------------------------------------------------
5-----------------------------------------------------------------------
4-----------------------------------------------------------------------
3---------10---------------8------------------10------------------------
2--------9----------------8-9-9-9-9----------9---------11-11------------
1-8-11-8-----9-9-9---5-9-5-------------8-11-8----9-9-9-------8-9-9-8-11-

6---------
5---------
4---------
3---------
2---11-9--
1-8-------


  F7           A#m          D#7
Regálame tus besos de miel
            G#            F7
imprégname tu aroma en la piel
            A#m
y hazme que me sienta sonar
       D#7              G#    G#7
con esa forma de amar, carino

       C#            D#7
Esta entrega sera diferente
       G#             F7
ser el uno del otro por siempre
      A#m
no como esos que dan
       D#7
y en seguida se van
      G#              G#7
y que se hacen llorar, llorar

     C#              D#7
A nosotros nos sobran motivos
       G#               F7
es por eso que estamos cautivos
   A#m
en esta prisión
       D#7            G#
donde hay solo amor, carino

6-----------------------------------
5-----------------------------------
4-----------------------------------
3-----------------------------------
2-11------------11--------------11-9
1----8-9-9-8-9-----8-9-9-8-12-8-----
Suggest correction
Give kudos to tab author, rate the tab!
1 2 3 4 5
comments
print report bad tab
guest
Wanna post a correction for this tab? Suggest correction