Oops, an error
Loading. Please wait.

Quien Es Como El Señor? Tab

105 views 3 this week
no commentswrite comment
1 2 3 4 5
2 more votes to show rating
add to favorites
launch autoscroll
font size
0
reset
how to read this tab
guitar tuner
×
Best way to learn
"Quien Es Como El Señor?"
Autoscroll
slow
fast
+/-
esc
set tempo
stop
E -----------------------------------------------
A -----------------------------------------------
D --------------7-7------------------------------
G ---10=>9-7-10---------10=>9-7-10---------------
B ---------------------------------10-10---------
E -----------------------------------------------

E -----------------------------------------------
A -----------------------------------------------
D -----------------------------------------------
G -----------------------------------10-10-------
B ----10=>11-10-10----8=>10-8-8----8-------------
E -----------------------------------------------

este es el intro q repite en varias ocasiones el guitarrista de tim,
en cuanto a la flecha (=>)es un slide, se lo puse por que me parecio
asi super elegante, jaja... ya saben!


Dm                   A#                  F
quien es como el Señor, quien iguala su poder
                    C
quien es como el Señor mi Dios,
Dm                   A#                  F
no hay nadie como el,el poderoso de israel
                C
no hay nadie como el Señor
Dm                   A#                  F
a todo el mundo lo dire,con mi voz declarare
                C
que no hay nadie como el Señor
Dm                   A#                  F
como no podre cantar,para siempre proclamar
               C
que no hay nadie como el Señor

CORO
Dm                   A#
No hay nadie, que se compare
F                    C
no hay nadie como el Señor


Le mando saludos a mi ninia sari, preciosa princesa
eres la promesa q Dios m dio, t super amo,
eres la mujer mas hermosa sobre el planeta tierra;
m quiero casar contigo yaaaa!!!
soy fabo,abogado a sus servicios de la Iglesia Celular Jesucristo es
EL señor de Lerma, san FRancisco de Campeche en mexico, Jesus Rock´s!!
Suggest correction
Give kudos to tab author, rate the tab!
1 2 3 4 5
comments
print report bad tab
guest
You may want to rate the tab now too:
select rating
Wanna post a correction for this tab? Suggest correction